  0
SECTION
  2
HEADER
  9
$ACADVER
  1
AC1018
  9
$ACADMAINTVER
 70
     0
  9
$DWGCODEPAGE
  3
ANSI_1251
  9
$INSBASE
 10
0.0
 20
0.0
 30
0.0
  9
$EXTMIN
 10
-39.12375
 20
-14.1653
 30
0.0
  9
$EXTMAX
 10
34.5758
 20
11.59108
 30
0.0
  9
$LIMMIN
 10
0.0
 20
0.0
  9
$LIMMAX
 10
12.0
 20
9.0
  9
$ORTHOMODE
 70
     0
  9
$REGENMODE
 70
     1
  9
$FILLMODE
 70
     1
  9
$QTEXTMODE
 70
     0
  9
$MIRRTEXT
 70
     1
  9
$LTSCALE
 40
1.0
  9
$ATTMODE
 70
     1
  9
$TEXTSIZE
 40
0.2
  9
$TRACEWID
 40
0.05
  9
$TEXTSTYLE
  7
Standard
  9
$CLAYER
  8
0
  9
$CELTYPE
  6
ByLayer
  9
$CECOLOR
 62
   256
  9
$CELTSCALE
 40
1.0
  9
$DISPSILH
 70
     0
  9
$DIMSCALE
 40
1.0
  9
$DIMASZ
 40
0.18
  9
$DIMEXO
 40
0.0625
  9
$DIMDLI
 40
0.38
  9
$DIMRND
 40
0.0
  9
$DIMDLE
 40
0.0
  9
$DIMEXE
 40
0.18
  9
$DIMTP
 40
0.0
  9
$DIMTM
 40
0.0
  9
$DIMTXT
 40
0.18
  9
$DIMCEN
 40
0.09
  9
$DIMTSZ
 40
0.0
  9
$DIMTOL
 70
     0
  9
$DIMLIM
 70
     0
  9
$DIMTIH
 70
     1
  9
$DIMTOH
 70
     1
  9
$DIMSE1
 70
     0
  9
$DIMSE2
 70
     0
  9
$DIMTAD
 70
     0
  9
$DIMZIN
 70
     0
  9
$DIMBLK
  1

  9
$DIMASO
 70
     1
  9
$DIMSHO
 70
     1
  9
$DIMPOST
  1

  9
$DIMAPOST
  1

  9
$DIMALT
 70
     0
  9
$DIMALTD
 70
     2
  9
$DIMALTF
 40
25.4
  9
$DIMLFAC
 40
1.0
  9
$DIMTOFL
 70
     0
  9
$DIMTVP
 40
0.0
  9
$DIMTIX
 70
     0
  9
$DIMSOXD
 70
     0
  9
$DIMSAH
 70
     0
  9
$DIMBLK1
  1

  9
$DIMBLK2
  1

  9
$DIMSTYLE
  2
Standard
  9
$DIMCLRD
 70
     0
  9
$DIMCLRE
 70
     0
  9
$DIMCLRT
 70
     0
  9
$DIMTFAC
 40
1.0
  9
$DIMGAP
 40
0.09
  9
$DIMJUST
 70
     0
  9
$DIMSD1
 70
     0
  9
$DIMSD2
 70
     0
  9
$DIMTOLJ
 70
     1
  9
$DIMTZIN
 70
     0
  9
$DIMALTZ
 70
     0
  9
$DIMALTTZ
 70
     0
  9
$DIMUPT
 70
     0
  9
$DIMDEC
 70
     4
  9
$DIMTDEC
 70
     4
  9
$DIMALTU
 70
     2
  9
$DIMALTTD
 70
     2
  9
$DIMTXSTY
  7
Standard
  9
$DIMAUNIT
 70
     0
  9
$DIMADEC
 70
     0
  9
$DIMALTRND
 40
0.0
  9
$DIMAZIN
 70
     0
  9
$DIMDSEP
 70
    46
  9
$DIMATFIT
 70
     3
  9
$DIMFRAC
 70
     0
  9
$DIMLDRBLK
  1

  9
$DIMLUNIT
 70
     2
  9
$DIMLWD
 70
    -2
  9
$DIMLWE
 70
    -2
  9
$DIMTMOVE
 70
     0
  9
$LUNITS
 70
     2
  9
$LUPREC
 70
     4
  9
$SKETCHINC
 40
0.1
  9
$FILLETRAD
 40
0.5
  9
$AUNITS
 70
     0
  9
$AUPREC
 70
     0
  9
$MENU
  1
.
  9
$ELEVATION
 40
0.0
  9
$PELEVATION
 40
0.0
  9
$THICKNESS
 40
0.0
  9
$LIMCHECK
 70
     0
  9
$CHAMFERA
 40
0.5
  9
$CHAMFERB
 40
0.5
  9
$CHAMFERC
 40
1.0
  9
$CHAMFERD
 40
0.0
  9
$SKPOLY
 70
     0
  9
$TDCREATE
 40
2457373.4195661
  9
$TDUCREATE
 40
2457373.211232766
  9
$TDUPDATE
 40
2457373.419566111
  9
$TDUUPDATE
 40
2457373.211232778
  9
$TDINDWG
 40
0.0000000116
  9
$TDUSRTIMER
 40
0.0000000116
  9
$USRTIMER
 70
     1
  9
$ANGBASE
 50
0.0
  9
$ANGDIR
 70
     0
  9
$PDMODE
 70
     0
  9
$PDSIZE
 40
0.0
  9
$PLINEWID
 40
0.0
  9
$SPLFRAME
 70
     0
  9
$SPLINETYPE
 70
     6
  9
$SPLINESEGS
 70
     8
  9
$HANDSEED
  5
4A
  9
$SURFTAB1
 70
     6
  9
$SURFTAB2
 70
     6
  9
$SURFTYPE
 70
     6
  9
$SURFU
 70
     6
  9
$SURFV
 70
     6
  9
$UCSBASE
  2

  9
$UCSNAME
  2

  9
$UCSORG
 10
0.0
 20
0.0
 30
0.0
  9
$UCSXDIR
 10
1.0
 20
0.0
 30
0.0
  9
$UCSYDIR
 10
0.0
 20
1.0
 30
0.0
  9
$UCSORTHOREF
  2

  9
$UCSORTHOVIEW
 70
     0
  9
$UCSORGTOP
 10
0.0
 20
0.0
 30
0.0
  9
$UCSORGBOTTOM
 10
0.0
 20
0.0
 30
0.0
  9
$UCSORGLEFT
 10
0.0
 20
0.0
 30
0.0
  9
$UCSORGRIGHT
 10
0.0
 20
0.0
 30
0.0
  9
$UCSORGFRONT
 10
0.0
 20
0.0
 30
0.0
  9
$UCSORGBACK
 10
0.0
 20
0.0
 30
0.0
  9
$PUCSBASE
  2

  9
$PUCSNAME
  2

  9
$PUCSORG
 10
0.0
 20
0.0
 30
0.0
  9
$PUCSXDIR
 10
1.0
 20
0.0
 30
0.0
  9
$PUCSYDIR
 10
0.0
 20
1.0
 30
0.0
  9
$PUCSORTHOREF
  2

  9
$PUCSORTHOVIEW
 70
     0
  9
$PUCSORGTOP
 10
0.0
 20
0.0
 30
0.0
  9
$PUCSORGBOTTOM
 10
0.0
 20
0.0
 30
0.0
  9
$PUCSORGLEFT
 10
0.0
 20
0.0
 30
0.0
  9
$PUCSORGRIGHT
 10
0.0
 20
0.0
 30
0.0
  9
$PUCSORGFRONT
 10
0.0
 20
0.0
 30
0.0
  9
$PUCSORGBACK
 10
0.0
 20
0.0
 30
0.0
  9
$USERI1
 70
     0
  9
$USERI2
 70
     0
  9
$USERI3
 70
     0
  9
$USERI4
 70
     0
  9
$USERI5
 70
     0
  9
$USERR1
 40
0.0
  9
$USERR2
 40
0.0
  9
$USERR3
 40
0.0
  9
$USERR4
 40
0.0
  9
$USERR5
 40
0.0
  9
$WORLDVIEW
 70
     1
  9
$SHADEDGE
 70
     3
  9
$SHADEDIF
 70
    70
  9
$TILEMODE
 70
     1
  9
$MAXACTVP
 70
    64
  9
$PINSBASE
 10
0.0
 20
0.0
 30
0.0
  9
$PLIMCHECK
 70
     0
  9
$PEXTMIN
 10
1.000000000000000E+20
 20
1.000000000000000E+20
 30
1.000000000000000E+20
  9
$PEXTMAX
 10
-1.000000000000000E+20
 20
-1.000000000000000E+20
 30
-1.000000000000000E+20
  9
$PLIMMIN
 10
0.0
 20
0.0
  9
$PLIMMAX
 10
12.0
 20
9.0
  9
$UNITMODE
 70
     0
  9
$VISRETAIN
 70
     1
  9
$PLINEGEN
 70
     0
  9
$PSLTSCALE
 70
     1
  9
$TREEDEPTH
 70
  3020
  9
$CMLSTYLE
  2
Standard
  9
$CMLJUST
 70
     0
  9
$CMLSCALE
 40
1.0
  9
$PROXYGRAPHICS
 70
     1
  9
$MEASUREMENT
 70
     0
  9
$CELWEIGHT
370
    -1
  9
$ENDCAPS
280
     0
  9
$JOINSTYLE
280
     0
  9
$LWDISPLAY
290
     0
  9
$INSUNITS
 70
     5
  9
$HYPERLINKBASE
  1

  9
$STYLESHEET
  1

  9
$XEDIT
290
     1
  9
$CEPSNTYPE
380
     0
  9
$PSTYLEMODE
290
     0
  9
$FINGERPRINTGUID
  2
{FAEB1C30-E019-11D5-929B-00C0DF256EC4}
  9
$VERSIONGUID
  2
{FAEB1C32-E019-11D5-929B-00C0DF256EC4}
  9
$EXTNAMES
290
     1
  9
$PSVPSCALE
 40
0.0
  9
$OLESTARTUP
290
     0
  9
$SORTENTS
280
   127
  9
$INDEXCTL
280
     0
  9
$HIDETEXT
280
     1
  9
$XCLIPFRAME
290
     0
  9
$HALOGAP
280
     0
  9
$OBSCOLOR
 70
   257
  9
$OBSLTYPE
280
     0
  9
$INTERSECTIONDISPLAY
280
     0
  9
$INTERSECTIONCOLOR
 70
   257
  9
$DIMASSOC
280
     2
  9
$PROJECTNAME
  1

  0
ENDSEC
  0
SECTION
  2
CLASSES
  0
CLASS
  1
ACDBDICTIONARYWDFLT
  2
AcDbDictionaryWithDefault
  3
ObjectDBX Classes
 90
        0
 91
        1
280
     0
281
     0
  0
ENDSEC
  0
SECTION
  2
TABLES
  0
TABLE
  2
VPORT
  5
8
330
0
100
AcDbSymbolTable
 70
     2
  0
VPORT
  5
29
330
8
100
AcDbSymbolTableRecord
100
AcDbViewportTableRecord
  2
*Active
 70
     0
 10
0.0
 20
0.0
 11
1.0
 21
1.0
 12
10.42990654205607
 22
4.5
 13
0.0
 23
0.0
 14
0.5
 24
0.5
 15
0.5
 25
0.5
 16
0.0
 26
0.0
 36
1.0
 17
0.0
 27
0.0
 37
0.0
 40
9.0
 41
1.972972972850329
 42
50.0
 43
0.0
 44
0.0
 50
0.0
 51
0.0
 71
     0
 72
   100
 73
     1
 74
     3
 75
     0
 76
     0
 77
     0
 78
     0
281
     0
 65
     1
110
0.0
120
0.0
130
0.0
111
1.0
121
0.0
131
0.0
112
0.0
122
1.0
132
0.0
 79
     0
146
0.0
  0
ENDTAB
  0
TABLE
  2
LTYPE
  5
5
330
0
100
AcDbSymbolTable
 70
     1
  0
LTYPE
  5
14
330
5
100
AcDbSymbolTableRecord
100
AcDbLinetypeTableRecord
  2
ByBlock
 70
     0
  3

 72
    65
 73
     0
 40
0.0
  0
LTYPE
  5
15
330
5
100
AcDbSymbolTableRecord
100
AcDbLinetypeTableRecord
  2
ByLayer
 70
     0
  3

 72
    65
 73
     0
 40
0.0
  0
LTYPE
  5
16
330
5
100
AcDbSymbolTableRecord
100
AcDbLinetypeTableRecord
  2
Continuous
 70
     0
  3
Solid line
 72
    65
 73
     0
 40
0.0
  0
ENDTAB
  0
TABLE
  2
LAYER
  5
2
330
0
100
AcDbSymbolTable
 70
     2
  0
LAYER
  5
10
330
2
100
AcDbSymbolTableRecord
100
AcDbLayerTableRecord
  2
0
 70
     0
 62
     7
  6
Continuous
370
    -3
390
F
  0
LAYER
  5
2B
330
2
100
AcDbSymbolTableRecord
100
AcDbLayerTableRecord
  2
layer 1
 70
     0
 62
     7
  6
Continuous
370
    -3
390
F
  0
ENDTAB
  0
TABLE
  2
STYLE
  5
3
330
0
100
AcDbSymbolTable
 70
     1
  0
STYLE
  5
11
330
3
100
AcDbSymbolTableRecord
100
AcDbTextStyleTableRecord
  2
Standard
 70
     0
 40
0.0
 41
1.0
 50
0.0
 71
     0
 42
0.2
  3
txt
  4

  0
ENDTAB
  0
TABLE
  2
VIEW
  5
6
330
0
100
AcDbSymbolTable
 70
     0
  0
ENDTAB
  0
TABLE
  2
UCS
  5
7
330
0
100
AcDbSymbolTable
 70
     0
  0
ENDTAB
  0
TABLE
  2
APPID
  5
9
330
0
100
AcDbSymbolTable
 70
     2
  0
APPID
  5
12
330
9
100
AcDbSymbolTableRecord
100
AcDbRegAppTableRecord
  2
ACAD
 70
     0
  0
APPID
  5
2A
330
9
100
AcDbSymbolTableRecord
100
AcDbRegAppTableRecord
  2
ODA
 70
     0
  0
ENDTAB
  0
TABLE
  2
DIMSTYLE
  5
A
330
0
100
AcDbSymbolTable
 70
     1
100
AcDbDimStyleTable
  0
DIMSTYLE
105
27
330
A
100
AcDbSymbolTableRecord
100
AcDbDimStyleTableRecord
  2
Standard
 70
     0
340
11
  0
ENDTAB
  0
TABLE
  2
BLOCK_RECORD
  5
1
330
0
100
AcDbSymbolTable
 70
     1
  0
BLOCK_RECORD
  5
1F
330
1
100
AcDbSymbolTableRecord
100
AcDbBlockTableRecord
  2
*Model_Space
340
22
  0
BLOCK_RECORD
  5
1B
330
1
100
AcDbSymbolTableRecord
100
AcDbBlockTableRecord
  2
*Paper_Space
340
1E
  0
BLOCK_RECORD
  5
23
330
1
100
AcDbSymbolTableRecord
100
AcDbBlockTableRecord
  2
*Paper_Space0
340
26
  0
ENDTAB
  0
ENDSEC
  0
SECTION
  2
BLOCKS
  0
BLOCK
  5
20
330
1F
100
AcDbEntity
  8
0
100
AcDbBlockBegin
  2
*Model_Space
 70
     0
 71
     0
 10
0.0
 20
0.0
 30
0.0
  3
*Model_Space
  1

  0
ENDBLK
  5
21
330
1F
100
AcDbEntity
  8
0
100
AcDbBlockEnd
  0
BLOCK
  5
1C
330
1B
100
AcDbEntity
 67
     1
  8
0
100
AcDbBlockBegin
  2
*Paper_Space
 70
     0
 71
     0
 10
0.0
 20
0.0
 30
0.0
  3
*Paper_Space
  1

  0
ENDBLK
  5
1D
330
1B
100
AcDbEntity
 67
     1
  8
0
100
AcDbBlockEnd
  0
BLOCK
  5
24
330
23
100
AcDbEntity
  8
0
100
AcDbBlockBegin
  2
*Paper_Space0
 70
     0
 71
     0
 10
0.0
 20
0.0
 30
0.0
  3
*Paper_Space0
  1

  0
ENDBLK
  5
25
330
23
100
AcDbEntity
  8
0
100
AcDbBlockEnd
  0
ENDSEC
  0
SECTION
  2
ENTITIES
  0
SPLINE
  5
2C
330
1F
100
AcDbEntity
  8
layer 1
 62
   250
370
     5
100
AcDbSpline
210
0.0
220
0.0
230
1.0
 70
    11
 71
     3
 72
    24
 73
    20
 74
     0
 42
0.0000000001
 43
0.0000000001
 40
0.0
 40
0.0
 40
0.0
 40
0.0
 40
0.2
 40
0.2
 40
0.2
 40
0.2
 40
0.4
 40
0.4
 40
0.4
 40
0.4
 40
0.6000000000000001
 40
0.6000000000000001
 40
0.6000000000000001
 40
0.6000000000000001
 40
0.8
 40
0.8
 40
0.8
 40
0.8
 40
1.0
 40
1.0
 40
1.0
 40
1.0
 10
-25.25218
 20
-0.9853200000000001
 30
0.0
 10
-25.25218
 20
-0.9853200000000001
 30
0.0
 10
-25.25218
 20
-0.9853200000000001
 30
0.0
 10
-25.25218
 20
-0.9853200000000001
 30
0.0
 10
-25.25218
 20
-0.9853200000000001
 30
0.0
 10
-25.25218
 20
-0.9853200000000001
 30
0.0
 10
-23.01913
 20
0.40165
 30
0.0
 10
-23.01913
 20
0.40165
 30
0.0
 10
-23.01913
 20
0.40165
 30
0.0
 10
-23.01913
 20
0.40165
 30
0.0
 10
-23.5774
 20
-0.9853200000000001
 30
0.0
 10
-23.5774
 20
-0.9853200000000001
 30
0.0
 10
-23.5774
 20
-0.9853200000000001
 30
0.0
 10
-23.5774
 20
-0.9853200000000001
 30
0.0
 10
-23.01913
 20
-2.37222
 30
0.0
 10
-23.01913
 20
-2.37222
 30
0.0
 10
-23.01913
 20
-2.37222
 30
0.0
 10
-23.01913
 20
-2.37222
 30
0.0
 10
-25.25218
 20
-0.9853200000000001
 30
0.0
 10
-25.25218
 20
-0.9853200000000001
 30
0.0
  0
SPLINE
  5
2D
330
1F
100
AcDbEntity
  8
layer 1
 62
   250
370
     5
100
AcDbSpline
210
0.0
220
0.0
230
1.0
 70
    11
 71
     3
 72
    24
 73
    20
 74
     0
 42
0.0000000001
 43
0.0000000001
 40
0.0
 40
0.0
 40
0.0
 40
0.0
 40
0.2
 40
0.2
 40
0.2
 40
0.2
 40
0.4
 40
0.4
 40
0.4
 40
0.4
 40
0.6000000000000001
 40
0.6000000000000001
 40
0.6000000000000001
 40
0.6000000000000001
 40
0.8
 40
0.8
 40
0.8
 40
0.8
 40
1.0
 40
1.0
 40
1.0
 40
1.0
 10
-25.92752
 20
-5.056640000000001
 30
0.0
 10
-25.92752
 20
-5.056640000000001
 30
0.0
 10
-25.92752
 20
-5.056640000000001
 30
0.0
 10
-25.92752
 20
-5.056640000000001
 30
0.0
 10
-25.92752
 20
-5.056640000000001
 30
0.0
 10
-25.92752
 20
-5.056640000000001
 30
0.0
 10
-26.84928
 20
-6.23364
 30
0.0
 10
-26.84928
 20
-6.23364
 30
0.0
 10
-26.84928
 20
-6.23364
 30
0.0
 10
-26.84928
 20
-6.23364
 30
0.0
 10
-26.76494
 20
-3.60592
 30
0.0
 10
-26.76494
 20
-3.60592
 30
0.0
 10
-26.76494
 20
-3.60592
 30
0.0
 10
-26.76494
 20
-3.60592
 30
0.0
 10
-24.44748
 20
-4.846690000000001
 30
0.0
 10
-24.44748
 20
-4.846690000000001
 30
0.0
 10
-24.44748
 20
-4.846690000000001
 30
0.0
 10
-24.44748
 20
-4.846690000000001
 30
0.0
 10
-25.92752
 20
-5.056640000000001
 30
0.0
 10
-25.92752
 20
-5.056640000000001
 30
0.0
  0
SPLINE
  5
2E
330
1F
100
AcDbEntity
  8
layer 1
 62
   250
370
     5
100
AcDbSpline
210
0.0
220
0.0
230
1.0
 70
    11
 71
     3
 72
    24
 73
    20
 74
     0
 42
0.0000000001
 43
0.0000000001
 40
0.0
 40
0.0
 40
0.0
 40
0.0
 40
0.2
 40
0.2
 40
0.2
 40
0.2
 40
0.4
 40
0.4
 40
0.4
 40
0.4
 40
0.6000000000000001
 40
0.6000000000000001
 40
0.6000000000000001
 40
0.6000000000000001
 40
0.8
 40
0.8
 40
0.8
 40
0.8
 40
1.0
 40
1.0
 40
1.0
 40
1.0
 10
-32.10776000000001
 20
-4.846690000000001
 30
0.0
 10
-32.10776000000001
 20
-4.846690000000001
 30
0.0
 10
-32.10776000000001
 20
-4.846690000000001
 30
0.0
 10
-32.10776000000001
 20
-4.846690000000001
 30
0.0
 10
-32.10776000000001
 20
-4.846690000000001
 30
0.0
 10
-32.10776000000001
 20
-4.846690000000001
 30
0.0
 10
-29.79033
 20
-3.60592
 30
0.0
 10
-29.79033
 20
-3.60592
 30
0.0
 10
-29.79033
 20
-3.60592
 30
0.0
 10
-29.79033
 20
-3.60592
 30
0.0
 10
-29.70597
 20
-6.23364
 30
0.0
 10
-29.70597
 20
-6.23364
 30
0.0
 10
-29.70597
 20
-6.23364
 30
0.0
 10
-29.70597
 20
-6.23364
 30
0.0
 10
-30.62771
 20
-5.056640000000001
 30
0.0
 10
-30.62771
 20
-5.056640000000001
 30
0.0
 10
-30.62771
 20
-5.056640000000001
 30
0.0
 10
-30.62771
 20
-5.056640000000001
 30
0.0
 10
-32.10776000000001
 20
-4.846690000000001
 30
0.0
 10
-32.10776000000001
 20
-4.846690000000001
 30
0.0
  0
SPLINE
  5
2F
330
1F
100
AcDbEntity
  8
layer 1
 62
   250
370
     5
100
AcDbSpline
210
0.0
220
0.0
230
1.0
 70
    11
 71
     3
 72
    24
 73
    20
 74
     0
 42
0.0000000001
 43
0.0000000001
 40
0.0
 40
0.0
 40
0.0
 40
0.0
 40
0.2
 40
0.2
 40
0.2
 40
0.2
 40
0.4
 40
0.4
 40
0.4
 40
0.4
 40
0.6000000000000001
 40
0.6000000000000001
 40
0.6000000000000001
 40
0.6000000000000001
 40
0.8
 40
0.8
 40
0.8
 40
0.8
 40
1.0
 40
1.0
 40
1.0
 40
1.0
 10
-33.53610000000001
 20
-2.37222
 30
0.0
 10
-33.53610000000001
 20
-2.37222
 30
0.0
 10
-33.53610000000001
 20
-2.37222
 30
0.0
 10
-33.53610000000001
 20
-2.37222
 30
0.0
 10
-33.53610000000001
 20
-2.37222
 30
0.0
 10
-33.53610000000001
 20
-2.37222
 30
0.0
 10
-32.97784
 20
-0.9853200000000001
 30
0.0
 10
-32.97784
 20
-0.9853200000000001
 30
0.0
 10
-32.97784
 20
-0.9853200000000001
 30
0.0
 10
-32.97784
 20
-0.9853200000000001
 30
0.0
 10
-33.53610000000001
 20
0.40161
 30
0.0
 10
-33.53610000000001
 20
0.40161
 30
0.0
 10
-33.53610000000001
 20
0.40161
 30
0.0
 10
-33.53610000000001
 20
0.40161
 30
0.0
 10
-31.30305
 20
-0.9853200000000001
 30
0.0
 10
-31.30305
 20
-0.9853200000000001
 30
0.0
 10
-31.30305
 20
-0.9853200000000001
 30
0.0
 10
-31.30305
 20
-0.9853200000000001
 30
0.0
 10
-33.53610000000001
 20
-2.37222
 30
0.0
 10
-33.53610000000001
 20
-2.37222
 30
0.0
  0
SPLINE
  5
30
330
1F
100
AcDbEntity
  8
layer 1
 62
   250
370
     5
100
AcDbSpline
210
0.0
220
0.0
230
1.0
 70
    11
 71
     3
 72
    24
 73
    20
 74
     0
 42
0.0000000001
 43
0.0000000001
 40
0.0
 40
0.0
 40
0.0
 40
0.0
 40
0.2
 40
0.2
 40
0.2
 40
0.2
 40
0.4
 40
0.4
 40
0.4
 40
0.4
 40
0.6000000000000001
 40
0.6000000000000001
 40
0.6000000000000001
 40
0.6000000000000001
 40
0.8
 40
0.8
 40
0.8
 40
0.8
 40
1.0
 40
1.0
 40
1.0
 40
1.0
 10
-30.62777
 20
3.08603
 30
0.0
 10
-30.62777
 20
3.08603
 30
0.0
 10
-30.62777
 20
3.08603
 30
0.0
 10
-30.62777
 20
3.08603
 30
0.0
 10
-30.62777
 20
3.08603
 30
0.0
 10
-30.62777
 20
3.08603
 30
0.0
 10
-29.70599
 20
4.263120000000001
 30
0.0
 10
-29.70599
 20
4.263120000000001
 30
0.0
 10
-29.70599
 20
4.263120000000001
 30
0.0
 10
-29.70599
 20
4.263120000000001
 30
0.0
 10
-29.79033
 20
1.63531
 30
0.0
 10
-29.79033
 20
1.63531
 30
0.0
 10
-29.79033
 20
1.63531
 30
0.0
 10
-29.79033
 20
1.63531
 30
0.0
 10
-32.10778000000001
 20
2.87613
 30
0.0
 10
-32.10778000000001
 20
2.87613
 30
0.0
 10
-32.10778000000001
 20
2.87613
 30
0.0
 10
-32.10778000000001
 20
2.87613
 30
0.0
 10
-30.62777
 20
3.08603
 30
0.0
 10
-30.62777
 20
3.08603
 30
0.0
  0
SPLINE
  5
31
330
1F
100
AcDbEntity
  8
layer 1
 62
   250
370
     5
100
AcDbSpline
210
0.0
220
0.0
230
1.0
 70
    11
 71
     3
 72
    24
 73
    20
 74
     0
 42
0.0000000001
 43
0.0000000001
 40
0.0
 40
0.0
 40
0.0
 40
0.0
 40
0.2
 40
0.2
 40
0.2
 40
0.2
 40
0.4
 40
0.4
 40
0.4
 40
0.4
 40
0.6000000000000001
 40
0.6000000000000001
 40
0.6000000000000001
 40
0.6000000000000001
 40
0.8
 40
0.8
 40
0.8
 40
0.8
 40
1.0
 40
1.0
 40
1.0
 40
1.0
 10
-24.44751
 20
2.87617
 30
0.0
 10
-24.44751
 20
2.87617
 30
0.0
 10
-24.44751
 20
2.87617
 30
0.0
 10
-24.44751
 20
2.87617
 30
0.0
 10
-24.44751
 20
2.87617
 30
0.0
 10
-24.44751
 20
2.87617
 30
0.0
 10
-26.76494
 20
1.63536
 30
0.0
 10
-26.76494
 20
1.63536
 30
0.0
 10
-26.76494
 20
1.63536
 30
0.0
 10
-26.76494
 20
1.63536
 30
0.0
 10
-26.8493
 20
4.263120000000001
 30
0.0
 10
-26.8493
 20
4.263120000000001
 30
0.0
 10
-26.8493
 20
4.263120000000001
 30
0.0
 10
-26.8493
 20
4.263120000000001
 30
0.0
 10
-25.92752
 20
3.08607
 30
0.0
 10
-25.92752
 20
3.08607
 30
0.0
 10
-25.92752
 20
3.08607
 30
0.0
 10
-25.92752
 20
3.08607
 30
0.0
 10
-24.44751
 20
2.87617
 30
0.0
 10
-24.44751
 20
2.87617
 30
0.0
  0
SPLINE
  5
32
330
1F
100
AcDbEntity
  8
layer 1
 62
   250
370
     5
100
AcDbSpline
210
0.0
220
0.0
230
1.0
 70
    11
 71
     3
 72
   388
 73
   384
 74
     0
 42
0.0000000001
 43
0.0000000001
 40
0.0
 40
0.0
 40
0.0
 40
0.0
 40
0.0104166666666667
 40
0.0104166666666667
 40
0.0104166666666667
 40
0.0104166666666667
 40
0.0208333333333333
 40
0.0208333333333333
 40
0.0208333333333333
 40
0.0208333333333333
 40
0.03125
 40
0.03125
 40
0.03125
 40
0.03125
 40
0.0416666666666667
 40
0.0416666666666667
 40
0.0416666666666667
 40
0.0416666666666667
 40
0.0520833333333333
 40
0.0520833333333333
 40
0.0520833333333333
 40
0.0520833333333333
 40
0.0625
 40
0.0625
 40
0.0625
 40
0.0625
 40
0.0729166666666667
 40
0.0729166666666667
 40
0.0729166666666667
 40
0.0729166666666667
 40
0.0833333333333333
 40
0.0833333333333333
 40
0.0833333333333333
 40
0.0833333333333333
 40
0.09375
 40
0.09375
 40
0.09375
 40
0.09375
 40
0.1041666666666667
 40
0.1041666666666667
 40
0.1041666666666667
 40
0.1041666666666667
 40
0.1145833333333333
 40
0.1145833333333333
 40
0.1145833333333333
 40
0.1145833333333333
 40
0.125
 40
0.125
 40
0.125
 40
0.125
 40
0.1354166666666667
 40
0.1354166666666667
 40
0.1354166666666667
 40
0.1354166666666667
 40
0.1458333333333333
 40
0.1458333333333333
 40
0.1458333333333333
 40
0.1458333333333333
 40
0.15625
 40
0.15625
 40
0.15625
 40
0.15625
 40
0.1666666666666666
 40
0.1666666666666666
 40
0.1666666666666666
 40
0.1666666666666666
 40
0.1770833333333333
 40
0.1770833333333333
 40
0.1770833333333333
 40
0.1770833333333333
 40
0.1874999999999999
 40
0.1874999999999999
 40
0.1874999999999999
 40
0.1874999999999999
 40
0.1979166666666666
 40
0.1979166666666666
 40
0.1979166666666666
 40
0.1979166666666666
 40
0.2083333333333333
 40
0.2083333333333333
 40
0.2083333333333333
 40
0.2083333333333333
 40
0.2187499999999999
 40
0.2187499999999999
 40
0.2187499999999999
 40
0.2187499999999999
 40
0.2291666666666666
 40
0.2291666666666666
 40
0.2291666666666666
 40
0.2291666666666666
 40
0.2395833333333332
 40
0.2395833333333332
 40
0.2395833333333332
 40
0.2395833333333332
 40
0.2499999999999999
 40
0.2499999999999999
 40
0.2499999999999999
 40
0.2499999999999999
 40
0.2604166666666666
 40
0.2604166666666666
 40
0.2604166666666666
 40
0.2604166666666666
 40
0.2708333333333333
 40
0.2708333333333333
 40
0.2708333333333333
 40
0.2708333333333333
 40
0.2812499999999999
 40
0.2812499999999999
 40
0.2812499999999999
 40
0.2812499999999999
 40
0.2916666666666666
 40
0.2916666666666666
 40
0.2916666666666666
 40
0.2916666666666666
 40
0.3020833333333333
 40
0.3020833333333333
 40
0.3020833333333333
 40
0.3020833333333333
 40
0.3125
 40
0.3125
 40
0.3125
 40
0.3125
 40
0.3229166666666667
 40
0.3229166666666667
 40
0.3229166666666667
 40
0.3229166666666667
 40
0.3333333333333334
 40
0.3333333333333334
 40
0.3333333333333334
 40
0.3333333333333334
 40
0.3437500000000001
 40
0.3437500000000001
 40
0.3437500000000001
 40
0.3437500000000001
 40
0.3541666666666667
 40
0.3541666666666667
 40
0.3541666666666667
 40
0.3541666666666667
 40
0.3645833333333334
 40
0.3645833333333334
 40
0.3645833333333334
 40
0.3645833333333334
 40
0.3750000000000001
 40
0.3750000000000001
 40
0.3750000000000001
 40
0.3750000000000001
 40
0.3854166666666668
 40
0.3854166666666668
 40
0.3854166666666668
 40
0.3854166666666668
 40
0.3958333333333335
 40
0.3958333333333335
 40
0.3958333333333335
 40
0.3958333333333335
 40
0.4062500000000002
 40
0.4062500000000002
 40
0.4062500000000002
 40
0.4062500000000002
 40
0.4166666666666669
 40
0.4166666666666669
 40
0.4166666666666669
 40
0.4166666666666669
 40
0.4270833333333335
 40
0.4270833333333335
 40
0.4270833333333335
 40
0.4270833333333335
 40
0.4375000000000002
 40
0.4375000000000002
 40
0.4375000000000002
 40
0.4375000000000002
 40
0.4479166666666669
 40
0.4479166666666669
 40
0.4479166666666669
 40
0.4479166666666669
 40
0.4583333333333336
 40
0.4583333333333336
 40
0.4583333333333336
 40
0.4583333333333336
 40
0.4687500000000003
 40
0.4687500000000003
 40
0.4687500000000003
 40
0.4687500000000003
 40
0.479166666666667
 40
0.479166666666667
 40
0.479166666666667
 40
0.479166666666667
 40
0.4895833333333337
 40
0.4895833333333337
 40
0.4895833333333337
 40
0.4895833333333337
 40
0.5000000000000003
 40
0.5000000000000003
 40
0.5000000000000003
 40
0.5000000000000003
 40
0.510416666666667
 40
0.510416666666667
 40
0.510416666666667
 40
0.510416666666667
 40
0.5208333333333336
 40
0.5208333333333336
 40
0.5208333333333336
 40
0.5208333333333336
 40
0.5312500000000002
 40
0.5312500000000002
 40
0.5312500000000002
 40
0.5312500000000002
 40
0.5416666666666669
 40
0.5416666666666669
 40
0.5416666666666669
 40
0.5416666666666669
 40
0.5520833333333335
 40
0.5520833333333335
 40
0.5520833333333335
 40
0.5520833333333335
 40
0.5625000000000001
 40
0.5625000000000001
 40
0.5625000000000001
 40
0.5625000000000001
 40
0.5729166666666667
 40
0.5729166666666667
 40
0.5729166666666667
 40
0.5729166666666667
 40
0.5833333333333334
 40
0.5833333333333334
 40
0.5833333333333334
 40
0.5833333333333334
 40
0.59375
 40
0.59375
 40
0.59375
 40
0.59375
 40
0.6041666666666666
 40
0.6041666666666666
 40
0.6041666666666666
 40
0.6041666666666666
 40
0.6145833333333333
 40
0.6145833333333333
 40
0.6145833333333333
 40
0.6145833333333333
 40
0.6249999999999999
 40
0.6249999999999999
 40
0.6249999999999999
 40
0.6249999999999999
 40
0.6354166666666665
 40
0.6354166666666665
 40
0.6354166666666665
 40
0.6354166666666665
 40
0.6458333333333332
 40
0.6458333333333332
 40
0.6458333333333332
 40
0.6458333333333332
 40
0.6562499999999998
 40
0.6562499999999998
 40
0.6562499999999998
 40
0.6562499999999998
 40
0.6666666666666664
 40
0.6666666666666664
 40
0.6666666666666664
 40
0.6666666666666664
 40
0.677083333333333
 40
0.677083333333333
 40
0.677083333333333
 40
0.677083333333333
 40
0.6874999999999997
 40
0.6874999999999997
 40
0.6874999999999997
 40
0.6874999999999997
 40
0.6979166666666663
 40
0.6979166666666663
 40
0.6979166666666663
 40
0.6979166666666663
 40
0.7083333333333329
 40
0.7083333333333329
 40
0.7083333333333329
 40
0.7083333333333329
 40
0.7187499999999996
 40
0.7187499999999996
 40
0.7187499999999996
 40
0.7187499999999996
 40
0.7291666666666662
 40
0.7291666666666662
 40
0.7291666666666662
 40
0.7291666666666662
 40
0.7395833333333328
 40
0.7395833333333328
 40
0.7395833333333328
 40
0.7395833333333328
 40
0.7499999999999994
 40
0.7499999999999994
 40
0.7499999999999994
 40
0.7499999999999994
 40
0.7604166666666661
 40
0.7604166666666661
 40
0.7604166666666661
 40
0.7604166666666661
 40
0.7708333333333327
 40
0.7708333333333327
 40
0.7708333333333327
 40
0.7708333333333327
 40
0.7812499999999993
 40
0.7812499999999993
 40
0.7812499999999993
 40
0.7812499999999993
 40
0.791666666666666
 40
0.791666666666666
 40
0.791666666666666
 40
0.791666666666666
 40
0.8020833333333326
 40
0.8020833333333326
 40
0.8020833333333326
 40
0.8020833333333326
 40
0.8124999999999992
 40
0.8124999999999992
 40
0.8124999999999992
 40
0.8124999999999992
 40
0.8229166666666659
 40
0.8229166666666659
 40
0.8229166666666659
 40
0.8229166666666659
 40
0.8333333333333325
 40
0.8333333333333325
 40
0.8333333333333325
 40
0.8333333333333325
 40
0.8437499999999991
 40
0.8437499999999991
 40
0.8437499999999991
 40
0.8437499999999991
 40
0.8541666666666657
 40
0.8541666666666657
 40
0.8541666666666657
 40
0.8541666666666657
 40
0.8645833333333324
 40
0.8645833333333324
 40
0.8645833333333324
 40
0.8645833333333324
 40
0.874999999999999
 40
0.874999999999999
 40
0.874999999999999
 40
0.874999999999999
 40
0.8854166666666656
 40
0.8854166666666656
 40
0.8854166666666656
 40
0.8854166666666656
 40
0.8958333333333323
 40
0.8958333333333323
 40
0.8958333333333323
 40
0.8958333333333323
 40
0.9062499999999989
 40
0.9062499999999989
 40
0.9062499999999989
 40
0.9062499999999989
 40
0.9166666666666655
 40
0.9166666666666655
 40
0.9166666666666655
 40
0.9166666666666655
 40
0.9270833333333322
 40
0.9270833333333322
 40
0.9270833333333322
 40
0.9270833333333322
 40
0.9374999999999988
 40
0.9374999999999988
 40
0.9374999999999988
 40
0.9374999999999988
 40
0.9479166666666654
 40
0.9479166666666654
 40
0.9479166666666654
 40
0.9479166666666654
 40
0.958333333333332
 40
0.958333333333332
 40
0.958333333333332
 40
0.958333333333332
 40
0.9687499999999987
 40
0.9687499999999987
 40
0.9687499999999987
 40
0.9687499999999987
 40
0.9791666666666653
 40
0.9791666666666653
 40
0.9791666666666653
 40
0.9791666666666653
 40
0.9895833333333319
 40
0.9895833333333319
 40
0.9895833333333319
 40
0.9895833333333319
 40
1.0
 40
1.0
 40
1.0
 40
1.0
 10
-17.47273
 20
-7.236390000000001
 30
0.0
 10
-17.47273
 20
-7.236390000000001
 30
0.0
 10
-17.98836
 20
-5.30855
 30
0.0
 10
-17.98836
 20
-5.30855
 30
0.0
 10
-17.98836
 20
-5.30855
 30
0.0
 10
-17.98836
 20
-5.30855
 30
0.0
 10
-19.62412
 20
-4.36394
 30
0.0
 10
-19.62412
 20
-4.36394
 30
0.0
 10
-19.62412
 20
-4.36394
 30
0.0
 10
-19.62412
 20
-4.36394
 30
0.0
 10
-18.33002
 20
-4.017110000000001
 30
0.0
 10
-18.33002
 20
-4.017110000000001
 30
0.0
 10
-18.33002
 20
-4.017110000000001
 30
0.0
 10
-18.33002
 20
-4.017110000000001
 30
0.0
 10
-18.7163
 20
-2.57514
 30
0.0
 10
-18.7163
 20
-2.57514
 30
0.0
 10
-18.7163
 20
-2.57514
 30
0.0
 10
-18.7163
 20
-2.57514
 30
0.0
 10
-20.9311
 20
-3.16872
 30
0.0
 10
-20.9311
 20
-3.16872
 30
0.0
 10
-20.9311
 20
-3.16872
 30
0.0
 10
-20.9311
 20
-3.16872
 30
0.0
 10
-20.35383
 20
-2.04797
 30
0.0
 10
-20.35383
 20
-2.04797
 30
0.0
 10
-20.35383
 20
-2.04797
 30
0.0
 10
-20.35383
 20
-2.04797
 30
0.0
 10
-21.05617
 20
-1.61568
 30
0.0
 10
-21.05617
 20
-1.61568
 30
0.0
 10
-21.05617
 20
-1.61568
 30
0.0
 10
-21.05617
 20
-1.61568
 30
0.0
 10
-19.09324
 20
-0.9852700000000001
 30
0.0
 10
-19.09324
 20
-0.9852700000000001
 30
0.0
 10
-19.09324
 20
-0.9852700000000001
 30
0.0
 10
-19.09324
 20
-0.9852700000000001
 30
0.0
 10
-21.05617
 20
-0.35484
 30
0.0
 10
-21.05617
 20
-0.35484
 30
0.0
 10
-21.05617
 20
-0.35484
 30
0.0
 10
-21.05617
 20
-0.35484
 30
0.0
 10
-20.35383
 20
0.07745
 30
0.0
 10
-20.35383
 20
0.07745
 30
0.0
 10
-20.35383
 20
0.07745
 30
0.0
 10
-20.35383
 20
0.07745
 30
0.0
 10
-20.92979
 20
1.19561
 30
0.0
 10
-20.92979
 20
1.19561
 30
0.0
 10
-20.92979
 20
1.19561
 30
0.0
 10
-20.92979
 20
1.19561
 30
0.0
 10
-18.7163
 20
0.60245
 30
0.0
 10
-18.7163
 20
0.60245
 30
0.0
 10
-18.7163
 20
0.60245
 30
0.0
 10
-18.7163
 20
0.60245
 30
0.0
 10
-18.33002
 20
2.04438
 30
0.0
 10
-18.33002
 20
2.04438
 30
0.0
 10
-18.33002
 20
2.04438
 30
0.0
 10
-18.33002
 20
2.04438
 30
0.0
 10
-19.60518
 20
2.38611
 30
0.0
 10
-19.60518
 20
2.38611
 30
0.0
 10
-19.60518
 20
2.38611
 30
0.0
 10
-19.60518
 20
2.38611
 30
0.0
 10
-17.98141
 20
3.3238
 30
0.0
 10
-17.98141
 20
3.3238
 30
0.0
 10
-17.98141
 20
3.3238
 30
0.0
 10
-17.98141
 20
3.3238
 30
0.0
 10
-17.47277
 20
5.2637
 30
0.0
 10
-17.47277
 20
5.2637
 30
0.0
 10
-17.47277
 20
5.2637
 30
0.0
 10
-17.47277
 20
5.2637
 30
0.0
 10
-19.39979
 20
5.78096
 30
0.0
 10
-19.39979
 20
5.78096
 30
0.0
 10
-19.39979
 20
5.78096
 30
0.0
 10
-19.39979
 20
5.78096
 30
0.0
 10
-21.03559
 20
4.83633
 30
0.0
 10
-21.03559
 20
4.83633
 30
0.0
 10
-21.03559
 20
4.83633
 30
0.0
 10
-21.03559
 20
4.83633
 30
0.0
 10
-20.68884
 20
6.130730000000001
 30
0.0
 10
-20.68884
 20
6.130730000000001
 30
0.0
 10
-20.68884
 20
6.130730000000001
 30
0.0
 10
-20.68884
 20
6.130730000000001
 30
0.0
 10
-22.1305
 20
6.517110000000001
 30
0.0
 10
-22.1305
 20
6.517110000000001
 30
0.0
 10
-22.1305
 20
6.517110000000001
 30
0.0
 10
-22.1305
 20
6.517110000000001
 30
0.0
 10
-22.72385
 20
4.3022
 30
0.0
 10
-22.72385
 20
4.3022
 30
0.0
 10
-22.72385
 20
4.3022
 30
0.0
 10
-22.72385
 20
4.3022
 30
0.0
 10
-23.3956
 20
5.346950000000001
 30
0.0
 10
-23.3956
 20
5.346950000000001
 30
0.0
 10
-23.3956
 20
5.346950000000001
 30
0.0
 10
-23.3956
 20
5.346950000000001
 30
0.0
 10
-24.12107
 20
4.954730000000001
 30
0.0
 10
-24.12107
 20
4.954730000000001
 30
0.0
 10
-24.12107
 20
4.954730000000001
 30
0.0
 10
-24.12107
 20
4.954730000000001
 30
0.0
 10
-23.68548
 20
6.97022
 30
0.0
 10
-23.68548
 20
6.97022
 30
0.0
 10
-23.68548
 20
6.97022
 30
0.0
 10
-23.68548
 20
6.97022
 30
0.0
 10
-25.21281
 20
5.585120000000001
 30
0.0
 10
-25.21281
 20
5.585120000000001
 30
0.0
 10
-25.21281
 20
5.585120000000001
 30
0.0
 10
-25.21281
 20
5.585120000000001
 30
0.0
 10
-25.23593
 20
6.409650000000001
 30
0.0
 10
-25.23593
 20
6.409650000000001
 30
0.0
 10
-25.23593
 20
6.409650000000001
 30
0.0
 10
-25.23593
 20
6.409650000000001
 30
0.0
 10
-26.51626
 20
6.471050000000001
 30
0.0
 10
-26.51626
 20
6.471050000000001
 30
0.0
 10
-26.51626
 20
6.471050000000001
 30
0.0
 10
-26.51626
 20
6.471050000000001
 30
0.0
 10
-24.88183
 20
8.105790000000001
 30
0.0
 10
-24.88183
 20
8.105790000000001
 30
0.0
 10
-24.88183
 20
8.105790000000001
 30
0.0
 10
-24.88183
 20
8.105790000000001
 30
0.0
 10
-25.93721
 20
9.16136
 30
0.0
 10
-25.93721
 20
9.16136
 30
0.0
 10
-25.93721
 20
9.16136
 30
0.0
 10
-25.93721
 20
9.16136
 30
0.0
 10
-26.87065
 20
8.227730000000001
 30
0.0
 10
-26.87065
 20
8.227730000000001
 30
0.0
 10
-26.87065
 20
8.227730000000001
 30
0.0
 10
-26.87065
 20
8.227730000000001
 30
0.0
 10
-26.87065
 20
10.10302
 30
0.0
 10
-26.87065
 20
10.10302
 30
0.0
 10
-26.87065
 20
10.10302
 30
0.0
 10
-26.87065
 20
10.10302
 30
0.0
 10
-28.29598
 20
11.51354
 30
0.0
 10
-28.29598
 20
11.51354
 30
0.0
 10
-28.29598
 20
11.51354
 30
0.0
 10
-28.29598
 20
11.51354
 30
0.0
 10
-29.70736
 20
10.10302
 30
0.0
 10
-29.70736
 20
10.10302
 30
0.0
 10
-29.70736
 20
10.10302
 30
0.0
 10
-29.70736
 20
10.10302
 30
0.0
 10
-29.70736
 20
8.213830000000002
 30
0.0
 10
-29.70736
 20
8.213830000000002
 30
0.0
 10
-29.70736
 20
8.213830000000002
 30
0.0
 10
-29.70736
 20
8.213830000000002
 30
0.0
 10
-30.6547
 20
9.16136
 30
0.0
 10
-30.6547
 20
9.16136
 30
0.0
 10
-30.6547
 20
9.16136
 30
0.0
 10
-30.6547
 20
9.16136
 30
0.0
 10
-31.71006
 20
8.105790000000001
 30
0.0
 10
-31.71006
 20
8.105790000000001
 30
0.0
 10
-31.71006
 20
8.105790000000001
 30
0.0
 10
-31.71006
 20
8.105790000000001
 30
0.0
 10
-30.07395
 20
6.469340000000001
 30
0.0
 10
-30.07395
 20
6.469340000000001
 30
0.0
 10
-30.07395
 20
6.469340000000001
 30
0.0
 10
-30.07395
 20
6.469340000000001
 30
0.0
 10
-31.3194
 20
6.409650000000001
 30
0.0
 10
-31.3194
 20
6.409650000000001
 30
0.0
 10
-31.3194
 20
6.409650000000001
 30
0.0
 10
-31.3194
 20
6.409650000000001
 30
0.0
 10
-31.34255
 20
5.585120000000001
 30
0.0
 10
-31.34255
 20
5.585120000000001
 30
0.0
 10
-31.34255
 20
5.585120000000001
 30
0.0
 10
-31.34255
 20
5.585120000000001
 30
0.0
 10
-32.86985
 20
6.97022
 30
0.0
 10
-32.86985
 20
6.97022
 30
0.0
 10
-32.86985
 20
6.97022
 30
0.0
 10
-32.86985
 20
6.97022
 30
0.0
 10
-32.43424
 20
4.954680000000001
 30
0.0
 10
-32.43424
 20
4.954680000000001
 30
0.0
 10
-32.43424
 20
4.954680000000001
 30
0.0
 10
-32.43424
 20
4.954680000000001
 30
0.0
 10
-33.15971
 20
5.34693
 30
0.0
 10
-33.15971
 20
5.34693
 30
0.0
 10
-33.15971
 20
5.34693
 30
0.0
 10
-33.15971
 20
5.34693
 30
0.0
 10
-33.85727
 20
4.26196
 30
0.0
 10
-33.85727
 20
4.26196
 30
0.0
 10
-33.85727
 20
4.26196
 30
0.0
 10
-33.85727
 20
4.26196
 30
0.0
 10
-34.46140000000001
 20
6.517
 30
0.0
 10
-34.46140000000001
 20
6.517
 30
0.0
 10
-34.46140000000001
 20
6.517
 30
0.0
 10
-34.46140000000001
 20
6.517
 30
0.0
 10
-35.90305
 20
6.13062
 30
0.0
 10
-35.90305
 20
6.13062
 30
0.0
 10
-35.90305
 20
6.13062
 30
0.0
 10
-35.90305
 20
6.13062
 30
0.0
 10
-35.56139
 20
4.85526
 30
0.0
 10
-35.56139
 20
4.85526
 30
0.0
 10
-35.56139
 20
4.85526
 30
0.0
 10
-35.56139
 20
4.85526
 30
0.0
 10
-37.18513
 20
5.792890000000001
 30
0.0
 10
-37.18513
 20
5.792890000000001
 30
0.0
 10
-37.18513
 20
5.792890000000001
 30
0.0
 10
-37.18513
 20
5.792890000000001
 30
0.0
 10
-39.1191
 20
5.26355
 30
0.0
 10
-39.1191
 20
5.26355
 30
0.0
 10
-39.1191
 20
5.26355
 30
0.0
 10
-39.1191
 20
5.26355
 30
0.0
 10
-38.60351
 20
3.33575
 30
0.0
 10
-38.60351
 20
3.33575
 30
0.0
 10
-38.60351
 20
3.33575
 30
0.0
 10
-38.60351
 20
3.33575
 30
0.0
 10
-36.96771
 20
2.39114
 30
0.0
 10
-36.96771
 20
2.39114
 30
0.0
 10
-36.96771
 20
2.39114
 30
0.0
 10
-36.96771
 20
2.39114
 30
0.0
 10
-38.26185
 20
2.04431
 30
0.0
 10
-38.26185
 20
2.04431
 30
0.0
 10
-38.26185
 20
2.04431
 30
0.0
 10
-38.26185
 20
2.04431
 30
0.0
 10
-37.87554
 20
0.6023700000000001
 30
0.0
 10
-37.87554
 20
0.6023700000000001
 30
0.0
 10
-37.87554
 20
0.6023700000000001
 30
0.0
 10
-37.87554
 20
0.6023700000000001
 30
0.0
 10
-35.61959
 20
1.20695
 30
0.0
 10
-35.61959
 20
1.20695
 30
0.0
 10
-35.61959
 20
1.20695
 30
0.0
 10
-35.61959
 20
1.20695
 30
0.0
 10
-36.20134
 20
0.0774
 30
0.0
 10
-36.20134
 20
0.0774
 30
0.0
 10
-36.20134
 20
0.0774
 30
0.0
 10
-36.20134
 20
0.0774
 30
0.0
 10
-35.49903000000001
 20
-0.35488
 30
0.0
 10
-35.49903000000001
 20
-0.35488
 30
0.0
 10
-35.49903000000001
 20
-0.35488
 30
0.0
 10
-35.49903000000001
 20
-0.35488
 30
0.0
 10
-37.46193
 20
-0.9853200000000001
 30
0.0
 10
-37.46193
 20
-0.9853200000000001
 30
0.0
 10
-37.46193
 20
-0.9853200000000001
 30
0.0
 10
-37.46193
 20
-0.9853200000000001
 30
0.0
 10
-35.49903000000001
 20
-1.61568
 30
0.0
 10
-35.49903000000001
 20
-1.61568
 30
0.0
 10
-35.49903000000001
 20
-1.61568
 30
0.0
 10
-35.49903000000001
 20
-1.61568
 30
0.0
 10
-36.20134
 20
-2.04797
 30
0.0
 10
-36.20134
 20
-2.04797
 30
0.0
 10
-36.20134
 20
-2.04797
 30
0.0
 10
-36.20134
 20
-2.04797
 30
0.0
 10
-35.61822
 20
-3.18019
 30
0.0
 10
-35.61822
 20
-3.18019
 30
0.0
 10
-35.61822
 20
-3.18019
 30
0.0
 10
-35.61822
 20
-3.18019
 30
0.0
 10
-37.87554
 20
-2.57521
 30
0.0
 10
-37.87554
 20
-2.57521
 30
0.0
 10
-37.87554
 20
-2.57521
 30
0.0
 10
-37.87554
 20
-2.57521
 30
0.0
 10
-38.26185
 20
-4.017160000000001
 30
0.0
 10
-38.26185
 20
-4.017160000000001
 30
0.0
 10
-38.26185
 20
-4.017160000000001
 30
0.0
 10
-38.26185
 20
-4.017160000000001
 30
0.0
 10
-36.98669
 20
-4.358910000000001
 30
0.0
 10
-36.98669
 20
-4.358910000000001
 30
0.0
 10
-36.98669
 20
-4.358910000000001
 30
0.0
 10
-36.98669
 20
-4.358910000000001
 30
0.0
 10
-38.61044
 20
-5.296550000000001
 30
0.0
 10
-38.61044
 20
-5.296550000000001
 30
0.0
 10
-38.61044
 20
-5.296550000000001
 30
0.0
 10
-38.61044
 20
-5.296550000000001
 30
0.0
 10
-39.1191
 20
-7.236440000000001
 30
0.0
 10
-39.1191
 20
-7.236440000000001
 30
0.0
 10
-39.1191
 20
-7.236440000000001
 30
0.0
 10
-39.1191
 20
-7.236440000000001
 30
0.0
 10
-37.1921
 20
-7.75372
 30
0.0
 10
-37.1921
 20
-7.75372
 30
0.0
 10
-37.1921
 20
-7.75372
 30
0.0
 10
-37.1921
 20
-7.75372
 30
0.0
 10
-35.5563
 20
-6.80909
 30
0.0
 10
-35.5563
 20
-6.80909
 30
0.0
 10
-35.5563
 20
-6.80909
 30
0.0
 10
-35.5563
 20
-6.80909
 30
0.0
 10
-35.90305
 20
-8.103490000000001
 30
0.0
 10
-35.90305
 20
-8.103490000000001
 30
0.0
 10
-35.90305
 20
-8.103490000000001
 30
0.0
 10
-35.90305
 20
-8.103490000000001
 30
0.0
 10
-34.46140000000001
 20
-8.489870000000002
 30
0.0
 10
-34.46140000000001
 20
-8.489870000000002
 30
0.0
 10
-34.46140000000001
 20
-8.489870000000002
 30
0.0
 10
-34.46140000000001
 20
-8.489870000000002
 30
0.0
 10
-33.85683
 20
-6.233130000000001
 30
0.0
 10
-33.85683
 20
-6.233130000000001
 30
0.0
 10
-33.85683
 20
-6.233130000000001
 30
0.0
 10
-33.85683
 20
-6.233130000000001
 30
0.0
 10
-33.15964
 20
-7.317470000000001
 30
0.0
 10
-33.15964
 20
-7.317470000000001
 30
0.0
 10
-33.15964
 20
-7.317470000000001
 30
0.0
 10
-33.15964
 20
-7.317470000000001
 30
0.0
 10
-32.43418000000001
 20
-6.92525
 30
0.0
 10
-32.43418000000001
 20
-6.92525
 30
0.0
 10
-32.43418000000001
 20
-6.92525
 30
0.0
 10
-32.43418000000001
 20
-6.92525
 30
0.0
 10
-32.86978000000001
 20
-8.94074
 30
0.0
 10
-32.86978000000001
 20
-8.94074
 30
0.0
 10
-32.86978000000001
 20
-8.94074
 30
0.0
 10
-32.86978000000001
 20
-8.94074
 30
0.0
 10
-31.34244
 20
-7.555680000000001
 30
0.0
 10
-31.34244
 20
-7.555680000000001
 30
0.0
 10
-31.34244
 20
-7.555680000000001
 30
0.0
 10
-31.34244
 20
-7.555680000000001
 30
0.0
 10
-31.31933
 20
-8.380170000000002
 30
0.0
 10
-31.31933
 20
-8.380170000000002
 30
0.0
 10
-31.31933
 20
-8.380170000000002
 30
0.0
 10
-31.31933
 20
-8.380170000000002
 30
0.0
 10
-30.07171
 20
-8.440020000000001
 30
0.0
 10
-30.07171
 20
-8.440020000000001
 30
0.0
 10
-30.07171
 20
-8.440020000000001
 30
0.0
 10
-30.07171
 20
-8.440020000000001
 30
0.0
 10
-31.71006
 20
-10.07865
 30
0.0
 10
-31.71006
 20
-10.07865
 30
0.0
 10
-31.71006
 20
-10.07865
 30
0.0
 10
-31.71006
 20
-10.07865
 30
0.0
 10
-30.6547
 20
-11.13422
 30
0.0
 10
-30.6547
 20
-11.13422
 30
0.0
 10
-30.6547
 20
-11.13422
 30
0.0
 10
-30.6547
 20
-11.13422
 30
0.0
 10
-29.72122
 20
-10.20059
 30
0.0
 10
-29.72122
 20
-10.20059
 30
0.0
 10
-29.72122
 20
-10.20059
 30
0.0
 10
-29.72122
 20
-10.20059
 30
0.0
 10
-29.72122
 20
-12.07593
 30
0.0
 10
-29.72122
 20
-12.07593
 30
0.0
 10
-29.72122
 20
-12.07593
 30
0.0
 10
-29.72122
 20
-12.07593
 30
0.0
 10
-28.29596
 20
-13.48645
 30
0.0
 10
-28.29596
 20
-13.48645
 30
0.0
 10
-28.29596
 20
-13.48645
 30
0.0
 10
-28.29596
 20
-13.48645
 30
0.0
 10
-26.88455
 20
-12.07589
 30
0.0
 10
-26.88455
 20
-12.07589
 30
0.0
 10
-26.88455
 20
-12.07589
 30
0.0
 10
-26.88455
 20
-12.07589
 30
0.0
 10
-26.88455
 20
-10.18669
 30
0.0
 10
-26.88455
 20
-10.18669
 30
0.0
 10
-26.88455
 20
-10.18669
 30
0.0
 10
-26.88455
 20
-10.18669
 30
0.0
 10
-25.93717
 20
-11.13422
 30
0.0
 10
-25.93717
 20
-11.13422
 30
0.0
 10
-25.93717
 20
-11.13422
 30
0.0
 10
-25.93717
 20
-11.13422
 30
0.0
 10
-24.88181
 20
-10.07865
 30
0.0
 10
-24.88181
 20
-10.07865
 30
0.0
 10
-24.88181
 20
-10.07865
 30
0.0
 10
-24.88181
 20
-10.07865
 30
0.0
 10
-26.51841
 20
-8.44168
 30
0.0
 10
-26.51841
 20
-8.44168
 30
0.0
 10
-26.51841
 20
-8.44168
 30
0.0
 10
-26.51841
 20
-8.44168
 30
0.0
 10
-25.23591
 20
-8.380170000000002
 30
0.0
 10
-25.23591
 20
-8.380170000000002
 30
0.0
 10
-25.23591
 20
-8.380170000000002
 30
0.0
 10
-25.23591
 20
-8.380170000000002
 30
0.0
 10
-25.21276
 20
-7.555680000000001
 30
0.0
 10
-25.21276
 20
-7.555680000000001
 30
0.0
 10
-25.21276
 20
-7.555680000000001
 30
0.0
 10
-25.21276
 20
-7.555680000000001
 30
0.0
 10
-23.68542
 20
-8.94074
 30
0.0
 10
-23.68542
 20
-8.94074
 30
0.0
 10
-23.68542
 20
-8.94074
 30
0.0
 10
-23.68542
 20
-8.94074
 30
0.0
 10
-24.12107
 20
-6.92525
 30
0.0
 10
-24.12107
 20
-6.92525
 30
0.0
 10
-24.12107
 20
-6.92525
 30
0.0
 10
-24.12107
 20
-6.92525
 30
0.0
 10
-23.39556
 20
-7.317470000000001
 30
0.0
 10
-23.39556
 20
-7.317470000000001
 30
0.0
 10
-23.39556
 20
-7.317470000000001
 30
0.0
 10
-23.39556
 20
-7.317470000000001
 30
0.0
 10
-22.72424
 20
-6.273320000000001
 30
0.0
 10
-22.72424
 20
-6.273320000000001
 30
0.0
 10
-22.72424
 20
-6.273320000000001
 30
0.0
 10
-22.72424
 20
-6.273320000000001
 30
0.0
 10
-22.13043
 20
-8.489870000000002
 30
0.0
 10
-22.13043
 20
-8.489870000000002
 30
0.0
 10
-22.13043
 20
-8.489870000000002
 30
0.0
 10
-22.13043
 20
-8.489870000000002
 30
0.0
 10
-20.68877
 20
-8.10346
 30
0.0
 10
-20.68877
 20
-8.10346
 30
0.0
 10
-20.68877
 20
-8.10346
 30
0.0
 10
-20.68877
 20
-8.10346
 30
0.0
 10
-21.03046
 20
-6.828060000000001
 30
0.0
 10
-21.03046
 20
-6.828060000000001
 30
0.0
 10
-21.03046
 20
-6.828060000000001
 30
0.0
 10
-21.03046
 20
-6.828060000000001
 30
0.0
 10
-19.40669
 20
-7.76571
 30
0.0
 10
-19.40669
 20
-7.76571
 30
0.0
 10
-19.40669
 20
-7.76571
 30
0.0
 10
-19.40669
 20
-7.76571
 30
0.0
 10
-17.47273
 20
-7.236390000000001
 30
0.0
 10
-17.47273
 20
-7.236390000000001
 30
0.0
  0
ELLIPSE
  5
33
330
1F
100
AcDbEntity
  8
layer 1
 62
   250
370
     5
100
AcDbEllipse
 10
-31.32297
 20
4.26266
 30
0.0
 11
0.0
 21
0.25
 31
0.0
210
0.0
220
0.0
230
1.0
 40
1.0
 41
0.0
 42
6.283185307179586
  0
ELLIPSE
  5
34
330
1F
100
AcDbEntity
  8
layer 1
 62
   250
370
     5
100
AcDbEllipse
 10
-22.19501
 20
-0.9573900000000001
 30
0.0
 11
0.0
 21
0.25
 31
0.0
210
0.0
220
0.0
230
1.0
 40
1.0
 41
0.0
 42
6.283185307179586
  0
ELLIPSE
  5
35
330
1F
100
AcDbEntity
  8
layer 1
 62
   250
370
     5
100
AcDbEllipse
 10
-31.322
 20
-6.23343
 30
0.0
 11
0.0
 21
0.25
 31
0.0
210
0.0
220
0.0
230
1.0
 40
1.0
 41
0.0
 42
6.283185307179586
  0
SPLINE
  5
36
330
1F
100
AcDbEntity
  8
layer 1
 62
   250
370
     5
100
AcDbSpline
210
0.0
220
0.0
230
1.0
 70
    11
 71
     3
 72
    24
 73
    20
 74
     0
 42
0.0000000001
 43
0.0000000001
 40
0.0
 40
0.0
 40
0.0
 40
0.0
 40
0.2
 40
0.2
 40
0.2
 40
0.2
 40
0.4
 40
0.4
 40
0.4
 40
0.4
 40
0.6000000000000001
 40
0.6000000000000001
 40
0.6000000000000001
 40
0.6000000000000001
 40
0.8
 40
0.8
 40
0.8
 40
0.8
 40
1.0
 40
1.0
 40
1.0
 40
1.0
 10
0.62621
 20
-4.43356
 30
0.0
 10
0.62621
 20
-4.43356
 30
0.0
 10
0.62621
 20
-4.43356
 30
0.0
 10
0.62621
 20
-4.43356
 30
0.0
 10
0.62621
 20
-4.43356
 30
0.0
 10
0.62621
 20
-4.43356
 30
0.0
 10
0.03673
 20
-4.43158
 30
0.0
 10
0.03673
 20
-4.43158
 30
0.0
 10
0.03673
 20
-4.43158
 30
0.0
 10
0.03673
 20
-4.43158
 30
0.0
 10
-0.7481000000000001
 20
-3.06667
 30
0.0
 10
-0.7481000000000001
 20
-3.06667
 30
0.0
 10
-0.7481000000000001
 20
-3.06667
 30
0.0
 10
-0.7481000000000001
 20
-3.06667
 30
0.0
 10
0.62426
 20
-3.85897
 30
0.0
 10
0.62426
 20
-3.85897
 30
0.0
 10
0.62426
 20
-3.85897
 30
0.0
 10
0.62426
 20
-3.85897
 30
0.0
 10
0.62621
 20
-4.43356
 30
0.0
 10
0.62621
 20
-4.43356
 30
0.0
  0
SPLINE
  5
37
330
1F
100
AcDbEntity
  8
layer 1
 62
   250
370
     5
100
AcDbSpline
210
0.0
220
0.0
230
1.0
 70
    11
 71
     3
 72
    24
 73
    20
 74
     0
 42
0.0000000001
 43
0.0000000001
 40
0.0
 40
0.0
 40
0.0
 40
0.0
 40
0.2
 40
0.2
 40
0.2
 40
0.2
 40
0.4
 40
0.4
 40
0.4
 40
0.4
 40
0.6000000000000001
 40
0.6000000000000001
 40
0.6000000000000001
 40
0.6000000000000001
 40
0.8
 40
0.8
 40
0.8
 40
0.8
 40
1.0
 40
1.0
 40
1.0
 40
1.0
 10
-1.6093
 20
-5.72423
 30
0.0
 10
-1.6093
 20
-5.72423
 30
0.0
 10
-1.6093
 20
-5.72423
 30
0.0
 10
-1.6093
 20
-5.72423
 30
0.0
 10
-1.6093
 20
-5.72423
 30
0.0
 10
-1.6093
 20
-5.72423
 30
0.0
 10
-2.11237
 20
-5.43153
 30
0.0
 10
-2.11237
 20
-5.43153
 30
0.0
 10
-2.11237
 20
-5.43153
 30
0.0
 10
-2.11237
 20
-5.43153
 30
0.0
 10
-2.11237
 20
-3.85486
 30
0.0
 10
-2.11237
 20
-3.85486
 30
0.0
 10
-2.11237
 20
-3.85486
 30
0.0
 10
-2.11237
 20
-3.85486
 30
0.0
 10
-1.32392
 20
-5.22606
 30
0.0
 10
-1.32392
 20
-5.22606
 30
0.0
 10
-1.32392
 20
-5.22606
 30
0.0
 10
-1.32392
 20
-5.22606
 30
0.0
 10
-1.6093
 20
-5.72423
 30
0.0
 10
-1.6093
 20
-5.72423
 30
0.0
  0
SPLINE
  5
38
330
1F
100
AcDbEntity
  8
layer 1
 62
   250
370
     5
100
AcDbSpline
210
0.0
220
0.0
230
1.0
 70
    11
 71
     3
 72
    24
 73
    20
 74
     0
 42
0.0000000001
 43
0.0000000001
 40
0.0
 40
0.0
 40
0.0
 40
0.0
 40
0.2
 40
0.2
 40
0.2
 40
0.2
 40
0.4
 40
0.4
 40
0.4
 40
0.4
 40
0.6000000000000001
 40
0.6000000000000001
 40
0.6000000000000001
 40
0.6000000000000001
 40
0.8
 40
0.8
 40
0.8
 40
0.8
 40
1.0
 40
1.0
 40
1.0
 40
1.0
 10
-4.18454
 20
-5.72423
 30
0.0
 10
-4.18454
 20
-5.72423
 30
0.0
 10
-4.18454
 20
-5.72423
 30
0.0
 10
-4.18454
 20
-5.72423
 30
0.0
 10
-4.18454
 20
-5.72423
 30
0.0
 10
-4.18454
 20
-5.72423
 30
0.0
 10
-4.47756
 20
-5.212750000000001
 30
0.0
 10
-4.47756
 20
-5.212750000000001
 30
0.0
 10
-4.47756
 20
-5.212750000000001
 30
0.0
 10
-4.47756
 20
-5.212750000000001
 30
0.0
 10
-3.687910000000001
 20
-3.85062
 30
0.0
 10
-3.687910000000001
 20
-3.85062
 30
0.0
 10
-3.687910000000001
 20
-3.85062
 30
0.0
 10
-3.687910000000001
 20
-3.85062
 30
0.0
 10
-3.687910000000001
 20
-5.43529
 30
0.0
 10
-3.687910000000001
 20
-5.43529
 30
0.0
 10
-3.687910000000001
 20
-5.43529
 30
0.0
 10
-3.687910000000001
 20
-5.43529
 30
0.0
 10
-4.18454
 20
-5.72423
 30
0.0
 10
-4.18454
 20
-5.72423
 30
0.0
  0
SPLINE
  5
39
330
1F
100
AcDbEntity
  8
layer 1
 62
   250
370
     5
100
AcDbSpline
210
0.0
220
0.0
230
1.0
 70
    11
 71
     3
 72
    24
 73
    20
 74
     0
 42
0.0000000001
 43
0.0000000001
 40
0.0
 40
0.0
 40
0.0
 40
0.0
 40
0.2
 40
0.2
 40
0.2
 40
0.2
 40
0.4
 40
0.4
 40
0.4
 40
0.4
 40
0.6000000000000001
 40
0.6000000000000001
 40
0.6000000000000001
 40
0.6000000000000001
 40
0.8
 40
0.8
 40
0.8
 40
0.8
 40
1.0
 40
1.0
 40
1.0
 40
1.0
 10
-6.420050000000001
 20
-4.433590000000001
 30
0.0
 10
-6.420050000000001
 20
-4.433590000000001
 30
0.0
 10
-6.420050000000001
 20
-4.433590000000001
 30
0.0
 10
-6.420050000000001
 20
-4.433590000000001
 30
0.0
 10
-6.420050000000001
 20
-4.433590000000001
 30
0.0
 10
-6.420050000000001
 20
-4.433590000000001
 30
0.0
 10
-6.41807
 20
-3.85156
 30
0.0
 10
-6.41807
 20
-3.85156
 30
0.0
 10
-6.41807
 20
-3.85156
 30
0.0
 10
-6.41807
 20
-3.85156
 30
0.0
 10
-5.05264
 20
-3.06324
 30
0.0
 10
-5.05264
 20
-3.06324
 30
0.0
 10
-5.05264
 20
-3.06324
 30
0.0
 10
-5.05264
 20
-3.06324
 30
0.0
 10
-5.845910000000001
 20
-4.43165
 30
0.0
 10
-5.845910000000001
 20
-4.43165
 30
0.0
 10
-5.845910000000001
 20
-4.43165
 30
0.0
 10
-5.845910000000001
 20
-4.43165
 30
0.0
 10
-6.420050000000001
 20
-4.433590000000001
 30
0.0
 10
-6.420050000000001
 20
-4.433590000000001
 30
0.0
  0
SPLINE
  5
3A
330
1F
100
AcDbEntity
  8
layer 1
 62
   250
370
     5
100
AcDbSpline
210
0.0
220
0.0
230
1.0
 70
    11
 71
     3
 72
    24
 73
    20
 74
     0
 42
0.0000000001
 43
0.0000000001
 40
0.0
 40
0.0
 40
0.0
 40
0.0
 40
0.2
 40
0.2
 40
0.2
 40
0.2
 40
0.4
 40
0.4
 40
0.4
 40
0.4
 40
0.6000000000000001
 40
0.6000000000000001
 40
0.6000000000000001
 40
0.6000000000000001
 40
0.8
 40
0.8
 40
0.8
 40
0.8
 40
1.0
 40
1.0
 40
1.0
 40
1.0
 10
-7.707680000000001
 20
-2.20333
 30
0.0
 10
-7.707680000000001
 20
-2.20333
 30
0.0
 10
-7.707680000000001
 20
-2.20333
 30
0.0
 10
-7.707680000000001
 20
-2.20333
 30
0.0
 10
-7.707680000000001
 20
-2.20333
 30
0.0
 10
-7.707680000000001
 20
-2.20333
 30
0.0
 10
-7.411230000000001
 20
-1.69385
 30
0.0
 10
-7.411230000000001
 20
-1.69385
 30
0.0
 10
-7.411230000000001
 20
-1.69385
 30
0.0
 10
-7.411230000000001
 20
-1.69385
 30
0.0
 10
-5.83675
 20
-1.6966
 30
0.0
 10
-5.83675
 20
-1.6966
 30
0.0
 10
-5.83675
 20
-1.6966
 30
0.0
 10
-5.83675
 20
-1.6966
 30
0.0
 10
-7.209110000000001
 20
-2.48897
 30
0.0
 10
-7.209110000000001
 20
-2.48897
 30
0.0
 10
-7.209110000000001
 20
-2.48897
 30
0.0
 10
-7.209110000000001
 20
-2.48897
 30
0.0
 10
-7.707680000000001
 20
-2.20333
 30
0.0
 10
-7.707680000000001
 20
-2.20333
 30
0.0
  0
SPLINE
  5
3B
330
1F
100
AcDbEntity
  8
layer 1
 62
   250
370
     5
100
AcDbSpline
210
0.0
220
0.0
230
1.0
 70
    11
 71
     3
 72
    24
 73
    20
 74
     0
 42
0.0000000001
 43
0.0000000001
 40
0.0
 40
0.0
 40
0.0
 40
0.0
 40
0.2
 40
0.2
 40
0.2
 40
0.2
 40
0.4
 40
0.4
 40
0.4
 40
0.4
 40
0.6000000000000001
 40
0.6000000000000001
 40
0.6000000000000001
 40
0.6000000000000001
 40
0.8
 40
0.8
 40
0.8
 40
0.8
 40
1.0
 40
1.0
 40
1.0
 40
1.0
 10
-7.707680000000001
 20
0.37796
 30
0.0
 10
-7.707680000000001
 20
0.37796
 30
0.0
 10
-7.707680000000001
 20
0.37796
 30
0.0
 10
-7.707680000000001
 20
0.37796
 30
0.0
 10
-7.707680000000001
 20
0.37796
 30
0.0
 10
-7.707680000000001
 20
0.37796
 30
0.0
 10
-7.20267
 20
0.6672600000000001
 30
0.0
 10
-7.20267
 20
0.6672600000000001
 30
0.0
 10
-7.20267
 20
0.6672600000000001
 30
0.0
 10
-7.20267
 20
0.6672600000000001
 30
0.0
 10
-5.83724
 20
-0.12106
 30
0.0
 10
-5.83724
 20
-0.12106
 30
0.0
 10
-5.83724
 20
-0.12106
 30
0.0
 10
-5.83724
 20
-0.12106
 30
0.0
 10
-7.418930000000001
 20
-0.11828
 30
0.0
 10
-7.418930000000001
 20
-0.11828
 30
0.0
 10
-7.418930000000001
 20
-0.11828
 30
0.0
 10
-7.418930000000001
 20
-0.11828
 30
0.0
 10
-7.707680000000001
 20
0.37796
 30
0.0
 10
-7.707680000000001
 20
0.37796
 30
0.0
  0
SPLINE
  5
3C
330
1F
100
AcDbEntity
  8
layer 1
 62
   250
370
     5
100
AcDbSpline
210
0.0
220
0.0
230
1.0
 70
    11
 71
     3
 72
    24
 73
    20
 74
     0
 42
0.0000000001
 43
0.0000000001
 40
0.0
 40
0.0
 40
0.0
 40
0.0
 40
0.2
 40
0.2
 40
0.2
 40
0.2
 40
0.4
 40
0.4
 40
0.4
 40
0.4
 40
0.6000000000000001
 40
0.6000000000000001
 40
0.6000000000000001
 40
0.6000000000000001
 40
0.8
 40
0.8
 40
0.8
 40
0.8
 40
1.0
 40
1.0
 40
1.0
 40
1.0
 10
-6.420050000000001
 20
2.60819
 30
0.0
 10
-6.420050000000001
 20
2.60819
 30
0.0
 10
-6.420050000000001
 20
2.60819
 30
0.0
 10
-6.420050000000001
 20
2.60819
 30
0.0
 10
-6.420050000000001
 20
2.60819
 30
0.0
 10
-6.420050000000001
 20
2.60819
 30
0.0
 10
-5.8306
 20
2.60622
 30
0.0
 10
-5.8306
 20
2.60622
 30
0.0
 10
-5.8306
 20
2.60622
 30
0.0
 10
-5.8306
 20
2.60622
 30
0.0
 10
-5.045780000000001
 20
1.2413
 30
0.0
 10
-5.045780000000001
 20
1.2413
 30
0.0
 10
-5.045780000000001
 20
1.2413
 30
0.0
 10
-5.045780000000001
 20
1.2413
 30
0.0
 10
-6.41811
 20
2.03363
 30
0.0
 10
-6.41811
 20
2.03363
 30
0.0
 10
-6.41811
 20
2.03363
 30
0.0
 10
-6.41811
 20
2.03363
 30
0.0
 10
-6.420050000000001
 20
2.60819
 30
0.0
 10
-6.420050000000001
 20
2.60819
 30
0.0
  0
SPLINE
  5
3D
330
1F
100
AcDbEntity
  8
layer 1
 62
   250
370
     5
100
AcDbSpline
210
0.0
220
0.0
230
1.0
 70
    11
 71
     3
 72
    24
 73
    20
 74
     0
 42
0.0000000001
 43
0.0000000001
 40
0.0
 40
0.0
 40
0.0
 40
0.0
 40
0.2
 40
0.2
 40
0.2
 40
0.2
 40
0.4
 40
0.4
 40
0.4
 40
0.4
 40
0.6000000000000001
 40
0.6000000000000001
 40
0.6000000000000001
 40
0.6000000000000001
 40
0.8
 40
0.8
 40
0.8
 40
0.8
 40
1.0
 40
1.0
 40
1.0
 40
1.0
 10
-4.18454
 20
3.89886
 30
0.0
 10
-4.18454
 20
3.89886
 30
0.0
 10
-4.18454
 20
3.89886
 30
0.0
 10
-4.18454
 20
3.89886
 30
0.0
 10
-4.18454
 20
3.89886
 30
0.0
 10
-4.18454
 20
3.89886
 30
0.0
 10
-3.6815
 20
3.60617
 30
0.0
 10
-3.6815
 20
3.60617
 30
0.0
 10
-3.6815
 20
3.60617
 30
0.0
 10
-3.6815
 20
3.60617
 30
0.0
 10
-3.6815
 20
2.02949
 30
0.0
 10
-3.6815
 20
2.02949
 30
0.0
 10
-3.6815
 20
2.02949
 30
0.0
 10
-3.6815
 20
2.02949
 30
0.0
 10
-4.46996
 20
3.40069
 30
0.0
 10
-4.46996
 20
3.40069
 30
0.0
 10
-4.46996
 20
3.40069
 30
0.0
 10
-4.46996
 20
3.40069
 30
0.0
 10
-4.18454
 20
3.89886
 30
0.0
 10
-4.18454
 20
3.89886
 30
0.0
  0
SPLINE
  5
3E
330
1F
100
AcDbEntity
  8
layer 1
 62
   250
370
     5
100
AcDbSpline
210
0.0
220
0.0
230
1.0
 70
    11
 71
     3
 72
    24
 73
    20
 74
     0
 42
0.0000000001
 43
0.0000000001
 40
0.0
 40
0.0
 40
0.0
 40
0.0
 40
0.2
 40
0.2
 40
0.2
 40
0.2
 40
0.4
 40
0.4
 40
0.4
 40
0.4
 40
0.6000000000000001
 40
0.6000000000000001
 40
0.6000000000000001
 40
0.6000000000000001
 40
0.8
 40
0.8
 40
0.8
 40
0.8
 40
1.0
 40
1.0
 40
1.0
 40
1.0
 10
-1.60934
 20
3.89886
 30
0.0
 10
-1.60934
 20
3.89886
 30
0.0
 10
-1.60934
 20
3.89886
 30
0.0
 10
-1.60934
 20
3.89886
 30
0.0
 10
-1.60934
 20
3.89886
 30
0.0
 10
-1.60934
 20
3.89886
 30
0.0
 10
-1.31634
 20
3.38742
 30
0.0
 10
-1.31634
 20
3.38742
 30
0.0
 10
-1.31634
 20
3.38742
 30
0.0
 10
-1.31634
 20
3.38742
 30
0.0
 10
-2.10596
 20
2.02532
 30
0.0
 10
-2.10596
 20
2.02532
 30
0.0
 10
-2.10596
 20
2.02532
 30
0.0
 10
-2.10596
 20
2.02532
 30
0.0
 10
-2.10596
 20
3.609890000000001
 30
0.0
 10
-2.10596
 20
3.609890000000001
 30
0.0
 10
-2.10596
 20
3.609890000000001
 30
0.0
 10
-2.10596
 20
3.609890000000001
 30
0.0
 10
-1.60934
 20
3.89886
 30
0.0
 10
-1.60934
 20
3.89886
 30
0.0
  0
SPLINE
  5
3F
330
1F
100
AcDbEntity
  8
layer 1
 62
   250
370
     5
100
AcDbSpline
210
0.0
220
0.0
230
1.0
 70
    11
 71
     3
 72
    24
 73
    20
 74
     0
 42
0.0000000001
 43
0.0000000001
 40
0.0
 40
0.0
 40
0.0
 40
0.0
 40
0.2
 40
0.2
 40
0.2
 40
0.2
 40
0.4
 40
0.4
 40
0.4
 40
0.4
 40
0.6000000000000001
 40
0.6000000000000001
 40
0.6000000000000001
 40
0.6000000000000001
 40
0.8
 40
0.8
 40
0.8
 40
0.8
 40
1.0
 40
1.0
 40
1.0
 40
1.0
 10
0.62617
 20
2.60825
 30
0.0
 10
0.62617
 20
2.60825
 30
0.0
 10
0.62617
 20
2.60825
 30
0.0
 10
0.62617
 20
2.60825
 30
0.0
 10
0.62617
 20
2.60825
 30
0.0
 10
0.62617
 20
2.60825
 30
0.0
 10
0.6242000000000001
 20
2.02625
 30
0.0
 10
0.6242000000000001
 20
2.02625
 30
0.0
 10
0.6242000000000001
 20
2.02625
 30
0.0
 10
0.6242000000000001
 20
2.02625
 30
0.0
 10
-0.74124
 20
1.2379
 30
0.0
 10
-0.74124
 20
1.2379
 30
0.0
 10
-0.74124
 20
1.2379
 30
0.0
 10
-0.74124
 20
1.2379
 30
0.0
 10
0.05204
 20
2.60631
 30
0.0
 10
0.05204
 20
2.60631
 30
0.0
 10
0.05204
 20
2.60631
 30
0.0
 10
0.05204
 20
2.60631
 30
0.0
 10
0.62617
 20
2.60825
 30
0.0
 10
0.62617
 20
2.60825
 30
0.0
  0
SPLINE
  5
40
330
1F
100
AcDbEntity
  8
layer 1
 62
   250
370
     5
100
AcDbSpline
210
0.0
220
0.0
230
1.0
 70
    11
 71
     3
 72
    24
 73
    20
 74
     0
 42
0.0000000001
 43
0.0000000001
 40
0.0
 40
0.0
 40
0.0
 40
0.0
 40
0.2
 40
0.2
 40
0.2
 40
0.2
 40
0.4
 40
0.4
 40
0.4
 40
0.4
 40
0.6000000000000001
 40
0.6000000000000001
 40
0.6000000000000001
 40
0.6000000000000001
 40
0.8
 40
0.8
 40
0.8
 40
0.8
 40
1.0
 40
1.0
 40
1.0
 40
1.0
 10
1.91381
 20
0.37802
 30
0.0
 10
1.91381
 20
0.37802
 30
0.0
 10
1.91381
 20
0.37802
 30
0.0
 10
1.91381
 20
0.37802
 30
0.0
 10
1.91381
 20
0.37802
 30
0.0
 10
1.91381
 20
0.37802
 30
0.0
 10
1.61739
 20
-0.13152
 30
0.0
 10
1.61739
 20
-0.13152
 30
0.0
 10
1.61739
 20
-0.13152
 30
0.0
 10
1.61739
 20
-0.13152
 30
0.0
 10
0.04291
 20
-0.12873
 30
0.0
 10
0.04291
 20
-0.12873
 30
0.0
 10
0.04291
 20
-0.12873
 30
0.0
 10
0.04291
 20
-0.12873
 30
0.0
 10
1.41524
 20
0.6636300000000001
 30
0.0
 10
1.41524
 20
0.6636300000000001
 30
0.0
 10
1.41524
 20
0.6636300000000001
 30
0.0
 10
1.41524
 20
0.6636300000000001
 30
0.0
 10
1.91381
 20
0.37802
 30
0.0
 10
1.91381
 20
0.37802
 30
0.0
  0
SPLINE
  5
41
330
1F
100
AcDbEntity
  8
layer 1
 62
   250
370
     5
100
AcDbSpline
210
0.0
220
0.0
230
1.0
 70
    11
 71
     3
 72
    24
 73
    20
 74
     0
 42
0.0000000001
 43
0.0000000001
 40
0.0
 40
0.0
 40
0.0
 40
0.0
 40
0.2
 40
0.2
 40
0.2
 40
0.2
 40
0.4
 40
0.4
 40
0.4
 40
0.4
 40
0.6000000000000001
 40
0.6000000000000001
 40
0.6000000000000001
 40
0.6000000000000001
 40
0.8
 40
0.8
 40
0.8
 40
0.8
 40
1.0
 40
1.0
 40
1.0
 40
1.0
 10
1.91384
 20
-2.20329
 30
0.0
 10
1.91384
 20
-2.20329
 30
0.0
 10
1.91384
 20
-2.20329
 30
0.0
 10
1.91384
 20
-2.20329
 30
0.0
 10
1.91384
 20
-2.20329
 30
0.0
 10
1.91384
 20
-2.20329
 30
0.0
 10
1.4088
 20
-2.49263
 30
0.0
 10
1.4088
 20
-2.49263
 30
0.0
 10
1.4088
 20
-2.49263
 30
0.0
 10
1.4088
 20
-2.49263
 30
0.0
 10
0.04336
 20
-1.70427
 30
0.0
 10
0.04336
 20
-1.70427
 30
0.0
 10
0.04336
 20
-1.70427
 30
0.0
 10
0.04336
 20
-1.70427
 30
0.0
 10
1.62509
 20
-1.70706
 30
0.0
 10
1.62509
 20
-1.70706
 30
0.0
 10
1.62509
 20
-1.70706
 30
0.0
 10
1.62509
 20
-1.70706
 30
0.0
 10
1.91384
 20
-2.20329
 30
0.0
 10
1.91384
 20
-2.20329
 30
0.0
  0
SPLINE
  5
42
330
1F
100
AcDbEntity
  8
layer 1
 62
   250
370
     5
100
AcDbSpline
210
0.0
220
0.0
230
1.0
 70
    11
 71
     3
 72
   460
 73
   456
 74
     0
 42
0.0000000001
 43
0.0000000001
 40
0.0
 40
0.0
 40
0.0
 40
0.0
 40
0.0087719298245614
 40
0.0087719298245614
 40
0.0087719298245614
 40
0.0087719298245614
 40
0.0175438596491228
 40
0.0175438596491228
 40
0.0175438596491228
 40
0.0175438596491228
 40
0.0263157894736842
 40
0.0263157894736842
 40
0.0263157894736842
 40
0.0263157894736842
 40
0.0350877192982456
 40
0.0350877192982456
 40
0.0350877192982456
 40
0.0350877192982456
 40
0.043859649122807
 40
0.043859649122807
 40
0.043859649122807
 40
0.043859649122807
 40
0.0526315789473684
 40
0.0526315789473684
 40
0.0526315789473684
 40
0.0526315789473684
 40
0.0614035087719298
 40
0.0614035087719298
 40
0.0614035087719298
 40
0.0614035087719298
 40
0.0701754385964912
 40
0.0701754385964912
 40
0.0701754385964912
 40
0.0701754385964912
 40
0.0789473684210526
 40
0.0789473684210526
 40
0.0789473684210526
 40
0.0789473684210526
 40
0.087719298245614
 40
0.087719298245614
 40
0.087719298245614
 40
0.087719298245614
 40
0.0964912280701754
 40
0.0964912280701754
 40
0.0964912280701754
 40
0.0964912280701754
 40
0.1052631578947368
 40
0.1052631578947368
 40
0.1052631578947368
 40
0.1052631578947368
 40
0.1140350877192982
 40
0.1140350877192982
 40
0.1140350877192982
 40
0.1140350877192982
 40
0.1228070175438596
 40
0.1228070175438596
 40
0.1228070175438596
 40
0.1228070175438596
 40
0.1315789473684211
 40
0.1315789473684211
 40
0.1315789473684211
 40
0.1315789473684211
 40
0.1403508771929825
 40
0.1403508771929825
 40
0.1403508771929825
 40
0.1403508771929825
 40
0.1491228070175439
 40
0.1491228070175439
 40
0.1491228070175439
 40
0.1491228070175439
 40
0.1578947368421053
 40
0.1578947368421053
 40
0.1578947368421053
 40
0.1578947368421053
 40
0.1666666666666667
 40
0.1666666666666667
 40
0.1666666666666667
 40
0.1666666666666667
 40
0.1754385964912281
 40
0.1754385964912281
 40
0.1754385964912281
 40
0.1754385964912281
 40
0.1842105263157895
 40
0.1842105263157895
 40
0.1842105263157895
 40
0.1842105263157895
 40
0.1929824561403509
 40
0.1929824561403509
 40
0.1929824561403509
 40
0.1929824561403509
 40
0.2017543859649123
 40
0.2017543859649123
 40
0.2017543859649123
 40
0.2017543859649123
 40
0.2105263157894737
 40
0.2105263157894737
 40
0.2105263157894737
 40
0.2105263157894737
 40
0.2192982456140351
 40
0.2192982456140351
 40
0.2192982456140351
 40
0.2192982456140351
 40
0.2280701754385965
 40
0.2280701754385965
 40
0.2280701754385965
 40
0.2280701754385965
 40
0.2368421052631579
 40
0.2368421052631579
 40
0.2368421052631579
 40
0.2368421052631579
 40
0.2456140350877193
 40
0.2456140350877193
 40
0.2456140350877193
 40
0.2456140350877193
 40
0.2543859649122807
 40
0.2543859649122807
 40
0.2543859649122807
 40
0.2543859649122807
 40
0.2631578947368422
 40
0.2631578947368422
 40
0.2631578947368422
 40
0.2631578947368422
 40
0.2719298245614036
 40
0.2719298245614036
 40
0.2719298245614036
 40
0.2719298245614036
 40
0.280701754385965
 40
0.280701754385965
 40
0.280701754385965
 40
0.280701754385965
 40
0.2894736842105264
 40
0.2894736842105264
 40
0.2894736842105264
 40
0.2894736842105264
 40
0.2982456140350879
 40
0.2982456140350879
 40
0.2982456140350879
 40
0.2982456140350879
 40
0.3070175438596493
 40
0.3070175438596493
 40
0.3070175438596493
 40
0.3070175438596493
 40
0.3157894736842107
 40
0.3157894736842107
 40
0.3157894736842107
 40
0.3157894736842107
 40
0.3245614035087722
 40
0.3245614035087722
 40
0.3245614035087722
 40
0.3245614035087722
 40
0.3333333333333336
 40
0.3333333333333336
 40
0.3333333333333336
 40
0.3333333333333336
 40
0.342105263157895
 40
0.342105263157895
 40
0.342105263157895
 40
0.342105263157895
 40
0.3508771929824565
 40
0.3508771929824565
 40
0.3508771929824565
 40
0.3508771929824565
 40
0.3596491228070179
 40
0.3596491228070179
 40
0.3596491228070179
 40
0.3596491228070179
 40
0.3684210526315793
 40
0.3684210526315793
 40
0.3684210526315793
 40
0.3684210526315793
 40
0.3771929824561408
 40
0.3771929824561408
 40
0.3771929824561408
 40
0.3771929824561408
 40
0.3859649122807022
 40
0.3859649122807022
 40
0.3859649122807022
 40
0.3859649122807022
 40
0.3947368421052636
 40
0.3947368421052636
 40
0.3947368421052636
 40
0.3947368421052636
 40
0.403508771929825
 40
0.403508771929825
 40
0.403508771929825
 40
0.403508771929825
 40
0.4122807017543865
 40
0.4122807017543865
 40
0.4122807017543865
 40
0.4122807017543865
 40
0.4210526315789479
 40
0.4210526315789479
 40
0.4210526315789479
 40
0.4210526315789479
 40
0.4298245614035093
 40
0.4298245614035093
 40
0.4298245614035093
 40
0.4298245614035093
 40
0.4385964912280708
 40
0.4385964912280708
 40
0.4385964912280708
 40
0.4385964912280708
 40
0.4473684210526322
 40
0.4473684210526322
 40
0.4473684210526322
 40
0.4473684210526322
 40
0.4561403508771936
 40
0.4561403508771936
 40
0.4561403508771936
 40
0.4561403508771936
 40
0.4649122807017551
 40
0.4649122807017551
 40
0.4649122807017551
 40
0.4649122807017551
 40
0.4736842105263165
 40
0.4736842105263165
 40
0.4736842105263165
 40
0.4736842105263165
 40
0.4824561403508779
 40
0.4824561403508779
 40
0.4824561403508779
 40
0.4824561403508779
 40
0.4912280701754394
 40
0.4912280701754394
 40
0.4912280701754394
 40
0.4912280701754394
 40
0.5000000000000008
 40
0.5000000000000008
 40
0.5000000000000008
 40
0.5000000000000008
 40
0.5087719298245622
 40
0.5087719298245622
 40
0.5087719298245622
 40
0.5087719298245622
 40
0.5175438596491236
 40
0.5175438596491236
 40
0.5175438596491236
 40
0.5175438596491236
 40
0.5263157894736851
 40
0.5263157894736851
 40
0.5263157894736851
 40
0.5263157894736851
 40
0.5350877192982465
 40
0.5350877192982465
 40
0.5350877192982465
 40
0.5350877192982465
 40
0.5438596491228079
 40
0.5438596491228079
 40
0.5438596491228079
 40
0.5438596491228079
 40
0.5526315789473694
 40
0.5526315789473694
 40
0.5526315789473694
 40
0.5526315789473694
 40
0.5614035087719308
 40
0.5614035087719308
 40
0.5614035087719308
 40
0.5614035087719308
 40
0.5701754385964922
 40
0.5701754385964922
 40
0.5701754385964922
 40
0.5701754385964922
 40
0.5789473684210537
 40
0.5789473684210537
 40
0.5789473684210537
 40
0.5789473684210537
 40
0.5877192982456151
 40
0.5877192982456151
 40
0.5877192982456151
 40
0.5877192982456151
 40
0.5964912280701765
 40
0.5964912280701765
 40
0.5964912280701765
 40
0.5964912280701765
 40
0.605263157894738
 40
0.605263157894738
 40
0.605263157894738
 40
0.605263157894738
 40
0.6140350877192994
 40
0.6140350877192994
 40
0.6140350877192994
 40
0.6140350877192994
 40
0.6228070175438608
 40
0.6228070175438608
 40
0.6228070175438608
 40
0.6228070175438608
 40
0.6315789473684222
 40
0.6315789473684222
 40
0.6315789473684222
 40
0.6315789473684222
 40
0.6403508771929837
 40
0.6403508771929837
 40
0.6403508771929837
 40
0.6403508771929837
 40
0.6491228070175451
 40
0.6491228070175451
 40
0.6491228070175451
 40
0.6491228070175451
 40
0.6578947368421065
 40
0.6578947368421065
 40
0.6578947368421065
 40
0.6578947368421065
 40
0.666666666666668
 40
0.666666666666668
 40
0.666666666666668
 40
0.666666666666668
 40
0.6754385964912294
 40
0.6754385964912294
 40
0.6754385964912294
 40
0.6754385964912294
 40
0.6842105263157908
 40
0.6842105263157908
 40
0.6842105263157908
 40
0.6842105263157908
 40
0.6929824561403523
 40
0.6929824561403523
 40
0.6929824561403523
 40
0.6929824561403523
 40
0.7017543859649137
 40
0.7017543859649137
 40
0.7017543859649137
 40
0.7017543859649137
 40
0.7105263157894751
 40
0.7105263157894751
 40
0.7105263157894751
 40
0.7105263157894751
 40
0.7192982456140366
 40
0.7192982456140366
 40
0.7192982456140366
 40
0.7192982456140366
 40
0.728070175438598
 40
0.728070175438598
 40
0.728070175438598
 40
0.728070175438598
 40
0.7368421052631594
 40
0.7368421052631594
 40
0.7368421052631594
 40
0.7368421052631594
 40
0.7456140350877208
 40
0.7456140350877208
 40
0.7456140350877208
 40
0.7456140350877208
 40
0.7543859649122823
 40
0.7543859649122823
 40
0.7543859649122823
 40
0.7543859649122823
 40
0.7631578947368437
 40
0.7631578947368437
 40
0.7631578947368437
 40
0.7631578947368437
 40
0.7719298245614051
 40
0.7719298245614051
 40
0.7719298245614051
 40
0.7719298245614051
 40
0.7807017543859666
 40
0.7807017543859666
 40
0.7807017543859666
 40
0.7807017543859666
 40
0.789473684210528
 40
0.789473684210528
 40
0.789473684210528
 40
0.789473684210528
 40
0.7982456140350894
 40
0.7982456140350894
 40
0.7982456140350894
 40
0.7982456140350894
 40
0.8070175438596509
 40
0.8070175438596509
 40
0.8070175438596509
 40
0.8070175438596509
 40
0.8157894736842123
 40
0.8157894736842123
 40
0.8157894736842123
 40
0.8157894736842123
 40
0.8245614035087737
 40
0.8245614035087737
 40
0.8245614035087737
 40
0.8245614035087737
 40
0.8333333333333352
 40
0.8333333333333352
 40
0.8333333333333352
 40
0.8333333333333352
 40
0.8421052631578966
 40
0.8421052631578966
 40
0.8421052631578966
 40
0.8421052631578966
 40
0.850877192982458
 40
0.850877192982458
 40
0.850877192982458
 40
0.850877192982458
 40
0.8596491228070194
 40
0.8596491228070194
 40
0.8596491228070194
 40
0.8596491228070194
 40
0.8684210526315809
 40
0.8684210526315809
 40
0.8684210526315809
 40
0.8684210526315809
 40
0.8771929824561423
 40
0.8771929824561423
 40
0.8771929824561423
 40
0.8771929824561423
 40
0.8859649122807037
 40
0.8859649122807037
 40
0.8859649122807037
 40
0.8859649122807037
 40
0.8947368421052652
 40
0.8947368421052652
 40
0.8947368421052652
 40
0.8947368421052652
 40
0.9035087719298266
 40
0.9035087719298266
 40
0.9035087719298266
 40
0.9035087719298266
 40
0.912280701754388
 40
0.912280701754388
 40
0.912280701754388
 40
0.912280701754388
 40
0.9210526315789495
 40
0.9210526315789495
 40
0.9210526315789495
 40
0.9210526315789495
 40
0.9298245614035109
 40
0.9298245614035109
 40
0.9298245614035109
 40
0.9298245614035109
 40
0.9385964912280723
 40
0.9385964912280723
 40
0.9385964912280723
 40
0.9385964912280723
 40
0.9473684210526338
 40
0.9473684210526338
 40
0.9473684210526338
 40
0.9473684210526338
 40
0.9561403508771952
 40
0.9561403508771952
 40
0.9561403508771952
 40
0.9561403508771952
 40
0.9649122807017566
 40
0.9649122807017566
 40
0.9649122807017566
 40
0.9649122807017566
 40
0.973684210526318
 40
0.973684210526318
 40
0.973684210526318
 40
0.973684210526318
 40
0.9824561403508795
 40
0.9824561403508795
 40
0.9824561403508795
 40
0.9824561403508795
 40
0.9912280701754409
 40
0.9912280701754409
 40
0.9912280701754409
 40
0.9912280701754409
 40
1.0
 40
1.0
 40
1.0
 40
1.0
 10
8.20715
 20
-5.151960000000001
 30
0.0
 10
8.20715
 20
-5.151960000000001
 30
0.0
 10
7.281470000000001
 20
-3.548200000000001
 30
0.0
 10
7.281470000000001
 20
-3.548200000000001
 30
0.0
 10
7.281470000000001
 20
-3.548200000000001
 30
0.0
 10
7.281470000000001
 20
-3.548200000000001
 30
0.0
 10
5.395980000000001
 20
-4.637140000000001
 30
0.0
 10
5.395980000000001
 20
-4.637140000000001
 30
0.0
 10
5.395980000000001
 20
-4.637140000000001
 30
0.0
 10
5.395980000000001
 20
-4.637140000000001
 30
0.0
 10
3.77053
 20
-3.698420000000001
 30
0.0
 10
3.77053
 20
-3.698420000000001
 30
0.0
 10
3.77053
 20
-3.698420000000001
 30
0.0
 10
3.77053
 20
-3.698420000000001
 30
0.0
 10
4.95737
 20
-3.01832
 30
0.0
 10
4.95737
 20
-3.01832
 30
0.0
 10
4.95737
 20
-3.01832
 30
0.0
 10
4.95737
 20
-3.01832
 30
0.0
 10
4.277550000000001
 20
-1.84961
 30
0.0
 10
4.277550000000001
 20
-1.84961
 30
0.0
 10
4.277550000000001
 20
-1.84961
 30
0.0
 10
4.277550000000001
 20
-1.84961
 30
0.0
 10
6.22986
 20
-1.85308
 30
0.0
 10
6.22986
 20
-1.85308
 30
0.0
 10
6.22986
 20
-1.85308
 30
0.0
 10
6.22986
 20
-1.85308
 30
0.0
 10
5.71518
 20
-0.92215
 30
0.0
 10
5.71518
 20
-0.92215
 30
0.0
 10
5.71518
 20
-0.92215
 30
0.0
 10
5.71518
 20
-0.92215
 30
0.0
 10
6.22982
 20
-0.00123
 30
0.0
 10
6.22982
 20
-0.00123
 30
0.0
 10
6.22982
 20
-0.00123
 30
0.0
 10
6.22982
 20
-0.00123
 30
0.0
 10
4.26466
 20
0.00223
 30
0.0
 10
4.26466
 20
0.00223
 30
0.0
 10
4.26466
 20
0.00223
 30
0.0
 10
4.26466
 20
0.00223
 30
0.0
 10
4.95737
 20
1.19308
 30
0.0
 10
4.95737
 20
1.19308
 30
0.0
 10
4.95737
 20
1.19308
 30
0.0
 10
4.95737
 20
1.19308
 30
0.0
 10
3.7781
 20
1.8688
 30
0.0
 10
3.7781
 20
1.8688
 30
0.0
 10
3.7781
 20
1.8688
 30
0.0
 10
3.7781
 20
1.8688
 30
0.0
 10
5.403510000000001
 20
2.80753
 30
0.0
 10
5.403510000000001
 20
2.80753
 30
0.0
 10
5.403510000000001
 20
2.80753
 30
0.0
 10
5.403510000000001
 20
2.80753
 30
0.0
 10
7.281470000000001
 20
1.72296
 30
0.0
 10
7.281470000000001
 20
1.72296
 30
0.0
 10
7.281470000000001
 20
1.72296
 30
0.0
 10
7.281470000000001
 20
1.72296
 30
0.0
 10
8.207100000000001
 20
3.32676
 30
0.0
 10
8.207100000000001
 20
3.32676
 30
0.0
 10
8.207100000000001
 20
3.32676
 30
0.0
 10
8.207100000000001
 20
3.32676
 30
0.0
 10
7.254810000000001
 20
3.87673
 30
0.0
 10
7.254810000000001
 20
3.87673
 30
0.0
 10
7.254810000000001
 20
3.87673
 30
0.0
 10
7.254810000000001
 20
3.87673
 30
0.0
 10
8.389940000000001
 20
4.532290000000001
 30
0.0
 10
8.389940000000001
 20
4.532290000000001
 30
0.0
 10
8.389940000000001
 20
4.532290000000001
 30
0.0
 10
8.389940000000001
 20
4.532290000000001
 30
0.0
 10
7.464280000000001
 20
6.13604
 30
0.0
 10
7.464280000000001
 20
6.13604
 30
0.0
 10
7.464280000000001
 20
6.13604
 30
0.0
 10
7.464280000000001
 20
6.13604
 30
0.0
 10
6.325380000000001
 20
5.47832
 30
0.0
 10
6.325380000000001
 20
5.47832
 30
0.0
 10
6.325380000000001
 20
5.47832
 30
0.0
 10
6.325380000000001
 20
5.47832
 30
0.0
 10
6.325380000000001
 20
6.58696
 30
0.0
 10
6.325380000000001
 20
6.58696
 30
0.0
 10
6.325380000000001
 20
6.58696
 30
0.0
 10
6.325380000000001
 20
6.58696
 30
0.0
 10
4.474040000000001
 20
6.58696
 30
0.0
 10
4.474040000000001
 20
6.58696
 30
0.0
 10
4.474040000000001
 20
6.58696
 30
0.0
 10
4.474040000000001
 20
6.58696
 30
0.0
 10
4.474080000000001
 20
4.40911
 30
0.0
 10
4.474080000000001
 20
4.40911
 30
0.0
 10
4.474080000000001
 20
4.40911
 30
0.0
 10
4.474080000000001
 20
4.40911
 30
0.0
 10
2.84863
 20
3.47035
 30
0.0
 10
2.84863
 20
3.47035
 30
0.0
 10
2.84863
 20
3.47035
 30
0.0
 10
2.84863
 20
3.47035
 30
0.0
 10
2.85322
 20
4.83854
 30
0.0
 10
2.85322
 20
4.83854
 30
0.0
 10
2.85322
 20
4.83854
 30
0.0
 10
2.85322
 20
4.83854
 30
0.0
 10
1.50149
 20
4.83398
 30
0.0
 10
1.50149
 20
4.83398
 30
0.0
 10
1.50149
 20
4.83398
 30
0.0
 10
1.50149
 20
4.83398
 30
0.0
 10
2.48063
 20
6.523510000000001
 30
0.0
 10
2.48063
 20
6.523510000000001
 30
0.0
 10
2.48063
 20
6.523510000000001
 30
0.0
 10
2.48063
 20
6.523510000000001
 30
0.0
 10
1.41734
 20
6.543130000000001
 30
0.0
 10
1.41734
 20
6.543130000000001
 30
0.0
 10
1.41734
 20
6.543130000000001
 30
0.0
 10
1.41734
 20
6.543130000000001
 30
0.0
 10
0.8773400000000001
 20
7.44941
 30
0.0
 10
0.8773400000000001
 20
7.44941
 30
0.0
 10
0.8773400000000001
 20
7.44941
 30
0.0
 10
0.8773400000000001
 20
7.44941
 30
0.0
 10
-0.10829
 20
5.74873
 30
0.0
 10
-0.10829
 20
5.74873
 30
0.0
 10
-0.10829
 20
5.74873
 30
0.0
 10
-0.10829
 20
5.74873
 30
0.0
 10
-0.7929100000000001
 20
6.944140000000001
 30
0.0
 10
-0.7929100000000001
 20
6.944140000000001
 30
0.0
 10
-0.7929100000000001
 20
6.944140000000001
 30
0.0
 10
-0.7929100000000001
 20
6.944140000000001
 30
0.0
 10
-1.96754
 20
6.260470000000001
 30
0.0
 10
-1.96754
 20
6.260470000000001
 30
0.0
 10
-1.96754
 20
6.260470000000001
 30
0.0
 10
-1.96754
 20
6.260470000000001
 30
0.0
 10
-1.96754
 20
8.137880000000001
 30
0.0
 10
-1.96754
 20
8.137880000000001
 30
0.0
 10
-1.96754
 20
8.137880000000001
 30
0.0
 10
-1.96754
 20
8.137880000000001
 30
0.0
 10
-0.08962
 20
9.22241
 30
0.0
 10
-0.08962
 20
9.22241
 30
0.0
 10
-0.08962
 20
9.22241
 30
0.0
 10
-0.08962
 20
9.22241
 30
0.0
 10
-1.01525
 20
10.82616
 30
0.0
 10
-1.01525
 20
10.82616
 30
0.0
 10
-1.01525
 20
10.82616
 30
0.0
 10
-1.01525
 20
10.82616
 30
0.0
 10
-1.96754
 20
10.2762
 30
0.0
 10
-1.96754
 20
10.2762
 30
0.0
 10
-1.96754
 20
10.2762
 30
0.0
 10
-1.96754
 20
10.2762
 30
0.0
 10
-1.96754
 20
11.58728
 30
0.0
 10
-1.96754
 20
11.58728
 30
0.0
 10
-1.96754
 20
11.58728
 30
0.0
 10
-1.96754
 20
11.58728
 30
0.0
 10
-3.8188
 20
11.58728
 30
0.0
 10
-3.8188
 20
11.58728
 30
0.0
 10
-3.8188
 20
11.58728
 30
0.0
 10
-3.8188
 20
11.58728
 30
0.0
 10
-3.8188
 20
10.27182
 30
0.0
 10
-3.8188
 20
10.27182
 30
0.0
 10
-3.8188
 20
10.27182
 30
0.0
 10
-3.8188
 20
10.27182
 30
0.0
 10
-4.77862
 20
10.82616
 30
0.0
 10
-4.77862
 20
10.82616
 30
0.0
 10
-4.77862
 20
10.82616
 30
0.0
 10
-4.77862
 20
10.82616
 30
0.0
 10
-5.70429
 20
9.22241
 30
0.0
 10
-5.70429
 20
9.22241
 30
0.0
 10
-5.70429
 20
9.22241
 30
0.0
 10
-5.70429
 20
9.22241
 30
0.0
 10
-3.8188
 20
8.133510000000001
 30
0.0
 10
-3.8188
 20
8.133510000000001
 30
0.0
 10
-3.8188
 20
8.133510000000001
 30
0.0
 10
-3.8188
 20
8.133510000000001
 30
0.0
 10
-3.8188
 20
6.25609
 30
0.0
 10
-3.8188
 20
6.25609
 30
0.0
 10
-3.8188
 20
6.25609
 30
0.0
 10
-3.8188
 20
6.25609
 30
0.0
 10
-5.001020000000001
 20
6.944140000000001
 30
0.0
 10
-5.001020000000001
 20
6.944140000000001
 30
0.0
 10
-5.001020000000001
 20
6.944140000000001
 30
0.0
 10
-5.001020000000001
 20
6.944140000000001
 30
0.0
 10
-5.67292
 20
5.770910000000001
 30
0.0
 10
-5.67292
 20
5.770910000000001
 30
0.0
 10
-5.67292
 20
5.770910000000001
 30
0.0
 10
-5.67292
 20
5.770910000000001
 30
0.0
 10
-6.646090000000001
 20
7.463830000000001
 30
0.0
 10
-6.646090000000001
 20
7.463830000000001
 30
0.0
 10
-6.646090000000001
 20
7.463830000000001
 30
0.0
 10
-6.646090000000001
 20
7.463830000000001
 30
0.0
 10
-7.19472
 20
6.55257
 30
0.0
 10
-7.19472
 20
6.55257
 30
0.0
 10
-7.19472
 20
6.55257
 30
0.0
 10
-7.19472
 20
6.55257
 30
0.0
 10
-8.24934
 20
6.53793
 30
0.0
 10
-8.24934
 20
6.53793
 30
0.0
 10
-8.24934
 20
6.53793
 30
0.0
 10
-8.24934
 20
6.53793
 30
0.0
 10
-7.269780000000001
 20
4.833830000000001
 30
0.0
 10
-7.269780000000001
 20
4.833830000000001
 30
0.0
 10
-7.269780000000001
 20
4.833830000000001
 30
0.0
 10
-7.269780000000001
 20
4.833830000000001
 30
0.0
 10
-8.6471
 20
4.83846
 30
0.0
 10
-8.6471
 20
4.83846
 30
0.0
 10
-8.6471
 20
4.83846
 30
0.0
 10
-8.6471
 20
4.83846
 30
0.0
 10
-8.64254
 20
3.47903
 30
0.0
 10
-8.64254
 20
3.47903
 30
0.0
 10
-8.64254
 20
3.47903
 30
0.0
 10
-8.64254
 20
3.47903
 30
0.0
 10
-10.26792
 20
4.41772
 30
0.0
 10
-10.26792
 20
4.41772
 30
0.0
 10
-10.26792
 20
4.41772
 30
0.0
 10
-10.26792
 20
4.41772
 30
0.0
 10
-10.26792
 20
6.586850000000001
 30
0.0
 10
-10.26792
 20
6.586850000000001
 30
0.0
 10
-10.26792
 20
6.586850000000001
 30
0.0
 10
-10.26792
 20
6.586850000000001
 30
0.0
 10
-12.11922
 20
6.586850000000001
 30
0.0
 10
-12.11922
 20
6.586850000000001
 30
0.0
 10
-12.11922
 20
6.586850000000001
 30
0.0
 10
-12.11922
 20
6.586850000000001
 30
0.0
 10
-12.11922
 20
5.486910000000001
 30
0.0
 10
-12.11922
 20
5.486910000000001
 30
0.0
 10
-12.11922
 20
5.486910000000001
 30
0.0
 10
-12.11922
 20
5.486910000000001
 30
0.0
 10
-13.25434
 20
6.142430000000001
 30
0.0
 10
-13.25434
 20
6.142430000000001
 30
0.0
 10
-13.25434
 20
6.142430000000001
 30
0.0
 10
-13.25434
 20
6.142430000000001
 30
0.0
 10
-14.18002
 20
4.538670000000001
 30
0.0
 10
-14.18002
 20
4.538670000000001
 30
0.0
 10
-14.18002
 20
4.538670000000001
 30
0.0
 10
-14.18002
 20
4.538670000000001
 30
0.0
 10
-13.04113
 20
3.88095
 30
0.0
 10
-13.04113
 20
3.88095
 30
0.0
 10
-13.04113
 20
3.88095
 30
0.0
 10
-13.04113
 20
3.88095
 30
0.0
 10
-14.00094
 20
3.32664
 30
0.0
 10
-14.00094
 20
3.32664
 30
0.0
 10
-14.00094
 20
3.32664
 30
0.0
 10
-14.00094
 20
3.32664
 30
0.0
 10
-13.07527
 20
1.72288
 30
0.0
 10
-13.07527
 20
1.72288
 30
0.0
 10
-13.07527
 20
1.72288
 30
0.0
 10
-13.07527
 20
1.72288
 30
0.0
 10
-11.18982
 20
2.81179
 30
0.0
 10
-11.18982
 20
2.81179
 30
0.0
 10
-11.18982
 20
2.81179
 30
0.0
 10
-11.18982
 20
2.81179
 30
0.0
 10
-9.56437
 20
1.8731
 30
0.0
 10
-9.56437
 20
1.8731
 30
0.0
 10
-9.56437
 20
1.8731
 30
0.0
 10
-9.56437
 20
1.8731
 30
0.0
 10
-10.75122
 20
1.193
 30
0.0
 10
-10.75122
 20
1.193
 30
0.0
 10
-10.75122
 20
1.193
 30
0.0
 10
-10.75122
 20
1.193
 30
0.0
 10
-10.07135
 20
0.02429
 30
0.0
 10
-10.07135
 20
0.02429
 30
0.0
 10
-10.07135
 20
0.02429
 30
0.0
 10
-10.07135
 20
0.02429
 30
0.0
 10
-12.02366
 20
0.02776
 30
0.0
 10
-12.02366
 20
0.02776
 30
0.0
 10
-12.02366
 20
0.02776
 30
0.0
 10
-12.02366
 20
0.02776
 30
0.0
 10
-11.50902
 20
-0.9031300000000001
 30
0.0
 10
-11.50902
 20
-0.9031300000000001
 30
0.0
 10
-11.50902
 20
-0.9031300000000001
 30
0.0
 10
-11.50902
 20
-0.9031300000000001
 30
0.0
 10
-12.02366
 20
-1.82405
 30
0.0
 10
-12.02366
 20
-1.82405
 30
0.0
 10
-12.02366
 20
-1.82405
 30
0.0
 10
-12.02366
 20
-1.82405
 30
0.0
 10
-10.0585
 20
-1.82755
 30
0.0
 10
-10.0585
 20
-1.82755
 30
0.0
 10
-10.0585
 20
-1.82755
 30
0.0
 10
-10.0585
 20
-1.82755
 30
0.0
 10
-10.75122
 20
-3.01836
 30
0.0
 10
-10.75122
 20
-3.01836
 30
0.0
 10
-10.75122
 20
-3.01836
 30
0.0
 10
-10.75122
 20
-3.01836
 30
0.0
 10
-9.57198
 20
-3.69412
 30
0.0
 10
-9.57198
 20
-3.69412
 30
0.0
 10
-9.57198
 20
-3.69412
 30
0.0
 10
-9.57198
 20
-3.69412
 30
0.0
 10
-11.19735
 20
-4.632800000000001
 30
0.0
 10
-11.19735
 20
-4.632800000000001
 30
0.0
 10
-11.19735
 20
-4.632800000000001
 30
0.0
 10
-11.19735
 20
-4.632800000000001
 30
0.0
 10
-13.07531
 20
-3.54828
 30
0.0
 10
-13.07531
 20
-3.54828
 30
0.0
 10
-13.07531
 20
-3.54828
 30
0.0
 10
-13.07531
 20
-3.54828
 30
0.0
 10
-14.00094
 20
-5.152030000000001
 30
0.0
 10
-14.00094
 20
-5.152030000000001
 30
0.0
 10
-14.00094
 20
-5.152030000000001
 30
0.0
 10
-14.00094
 20
-5.152030000000001
 30
0.0
 10
-13.04866
 20
-5.702000000000001
 30
0.0
 10
-13.04866
 20
-5.702000000000001
 30
0.0
 10
-13.04866
 20
-5.702000000000001
 30
0.0
 10
-13.04866
 20
-5.702000000000001
 30
0.0
 10
-14.18378
 20
-6.357570000000001
 30
0.0
 10
-14.18378
 20
-6.357570000000001
 30
0.0
 10
-14.18378
 20
-6.357570000000001
 30
0.0
 10
-14.18378
 20
-6.357570000000001
 30
0.0
 10
-13.25812
 20
-7.961290000000001
 30
0.0
 10
-13.25812
 20
-7.961290000000001
 30
0.0
 10
-13.25812
 20
-7.961290000000001
 30
0.0
 10
-13.25812
 20
-7.961290000000001
 30
0.0
 10
-12.11922
 20
-7.303560000000001
 30
0.0
 10
-12.11922
 20
-7.303560000000001
 30
0.0
 10
-12.11922
 20
-7.303560000000001
 30
0.0
 10
-12.11922
 20
-7.303560000000001
 30
0.0
 10
-12.11922
 20
-8.412240000000001
 30
0.0
 10
-12.11922
 20
-8.412240000000001
 30
0.0
 10
-12.11922
 20
-8.412240000000001
 30
0.0
 10
-12.11922
 20
-8.412240000000001
 30
0.0
 10
-10.26792
 20
-8.4122
 30
0.0
 10
-10.26792
 20
-8.4122
 30
0.0
 10
-10.26792
 20
-8.4122
 30
0.0
 10
-10.26792
 20
-8.4122
 30
0.0
 10
-10.26792
 20
-6.234400000000001
 30
0.0
 10
-10.26792
 20
-6.234400000000001
 30
0.0
 10
-10.26792
 20
-6.234400000000001
 30
0.0
 10
-10.26792
 20
-6.234400000000001
 30
0.0
 10
-8.6425
 20
-5.29567
 30
0.0
 10
-8.6425
 20
-5.29567
 30
0.0
 10
-8.6425
 20
-5.29567
 30
0.0
 10
-8.6425
 20
-5.29567
 30
0.0
 10
-8.6471
 20
-6.663810000000001
 30
0.0
 10
-8.6471
 20
-6.663810000000001
 30
0.0
 10
-8.6471
 20
-6.663810000000001
 30
0.0
 10
-8.6471
 20
-6.663810000000001
 30
0.0
 10
-7.295370000000001
 20
-6.65925
 30
0.0
 10
-7.295370000000001
 20
-6.65925
 30
0.0
 10
-7.295370000000001
 20
-6.65925
 30
0.0
 10
-7.295370000000001
 20
-6.65925
 30
0.0
 10
-8.274510000000001
 20
-8.348790000000001
 30
0.0
 10
-8.274510000000001
 20
-8.348790000000001
 30
0.0
 10
-8.274510000000001
 20
-8.348790000000001
 30
0.0
 10
-8.274510000000001
 20
-8.348790000000001
 30
0.0
 10
-7.211250000000001
 20
-8.36842
 30
0.0
 10
-7.211250000000001
 20
-8.36842
 30
0.0
 10
-7.211250000000001
 20
-8.36842
 30
0.0
 10
-7.211250000000001
 20
-8.36842
 30
0.0
 10
-6.671220000000001
 20
-9.274700000000001
 30
0.0
 10
-6.671220000000001
 20
-9.274700000000001
 30
0.0
 10
-6.671220000000001
 20
-9.274700000000001
 30
0.0
 10
-6.671220000000001
 20
-9.274700000000001
 30
0.0
 10
-5.68566
 20
-7.574050000000001
 30
0.0
 10
-5.68566
 20
-7.574050000000001
 30
0.0
 10
-5.68566
 20
-7.574050000000001
 30
0.0
 10
-5.68566
 20
-7.574050000000001
 30
0.0
 10
-5.000970000000001
 20
-8.769530000000001
 30
0.0
 10
-5.000970000000001
 20
-8.769530000000001
 30
0.0
 10
-5.000970000000001
 20
-8.769530000000001
 30
0.0
 10
-5.000970000000001
 20
-8.769530000000001
 30
0.0
 10
-3.826330000000001
 20
-8.08587
 30
0.0
 10
-3.826330000000001
 20
-8.08587
 30
0.0
 10
-3.826330000000001
 20
-8.08587
 30
0.0
 10
-3.826330000000001
 20
-8.08587
 30
0.0
 10
-3.826330000000001
 20
-9.963270000000001
 30
0.0
 10
-3.826330000000001
 20
-9.963270000000001
 30
0.0
 10
-3.826330000000001
 20
-9.963270000000001
 30
0.0
 10
-3.826330000000001
 20
-9.963270000000001
 30
0.0
 10
-5.70425
 20
-11.04784
 30
0.0
 10
-5.70425
 20
-11.04784
 30
0.0
 10
-5.70425
 20
-11.04784
 30
0.0
 10
-5.70425
 20
-11.04784
 30
0.0
 10
-4.77862
 20
-12.6516
 30
0.0
 10
-4.77862
 20
-12.6516
 30
0.0
 10
-4.77862
 20
-12.6516
 30
0.0
 10
-4.77862
 20
-12.6516
 30
0.0
 10
-3.8263
 20
-12.1016
 30
0.0
 10
-3.8263
 20
-12.1016
 30
0.0
 10
-3.8263
 20
-12.1016
 30
0.0
 10
-3.8263
 20
-12.1016
 30
0.0
 10
-3.8263
 20
-13.41272
 30
0.0
 10
-3.8263
 20
-13.41272
 30
0.0
 10
-3.8263
 20
-13.41272
 30
0.0
 10
-3.8263
 20
-13.41272
 30
0.0
 10
-1.97504
 20
-13.41272
 30
0.0
 10
-1.97504
 20
-13.41272
 30
0.0
 10
-1.97504
 20
-13.41272
 30
0.0
 10
-1.97504
 20
-13.41272
 30
0.0
 10
-1.97504
 20
-12.09726
 30
0.0
 10
-1.97504
 20
-12.09726
 30
0.0
 10
-1.97504
 20
-12.09726
 30
0.0
 10
-1.97504
 20
-12.09726
 30
0.0
 10
-1.01522
 20
-12.65156
 30
0.0
 10
-1.01522
 20
-12.65156
 30
0.0
 10
-1.01522
 20
-12.65156
 30
0.0
 10
-1.01522
 20
-12.65156
 30
0.0
 10
-0.08955
 20
-11.0478
 30
0.0
 10
-0.08955
 20
-11.0478
 30
0.0
 10
-0.08955
 20
-11.0478
 30
0.0
 10
-0.08955
 20
-11.0478
 30
0.0
 10
-1.97504
 20
-9.958900000000002
 30
0.0
 10
-1.97504
 20
-9.958900000000002
 30
0.0
 10
-1.97504
 20
-9.958900000000002
 30
0.0
 10
-1.97504
 20
-9.958900000000002
 30
0.0
 10
-1.97507
 20
-8.08145
 30
0.0
 10
-1.97507
 20
-8.08145
 30
0.0
 10
-1.97507
 20
-8.08145
 30
0.0
 10
-1.97507
 20
-8.08145
 30
0.0
 10
-0.7928700000000001
 20
-8.769530000000001
 30
0.0
 10
-0.7928700000000001
 20
-8.769530000000001
 30
0.0
 10
-0.7928700000000001
 20
-8.769530000000001
 30
0.0
 10
-0.7928700000000001
 20
-8.769530000000001
 30
0.0
 10
-0.12092
 20
-7.596260000000001
 30
0.0
 10
-0.12092
 20
-7.596260000000001
 30
0.0
 10
-0.12092
 20
-7.596260000000001
 30
0.0
 10
-0.12092
 20
-7.596260000000001
 30
0.0
 10
0.8522500000000001
 20
-9.28922
 30
0.0
 10
0.8522500000000001
 20
-9.28922
 30
0.0
 10
0.8522500000000001
 20
-9.28922
 30
0.0
 10
0.8522500000000001
 20
-9.28922
 30
0.0
 10
1.40088
 20
-8.377930000000001
 30
0.0
 10
1.40088
 20
-8.377930000000001
 30
0.0
 10
1.40088
 20
-8.377930000000001
 30
0.0
 10
1.40088
 20
-8.377930000000001
 30
0.0
 10
2.45553
 20
-8.363280000000001
 30
0.0
 10
2.45553
 20
-8.363280000000001
 30
0.0
 10
2.45553
 20
-8.363280000000001
 30
0.0
 10
2.45553
 20
-8.363280000000001
 30
0.0
 10
1.47594
 20
-6.659170000000001
 30
0.0
 10
1.47594
 20
-6.659170000000001
 30
0.0
 10
1.47594
 20
-6.659170000000001
 30
0.0
 10
1.47594
 20
-6.659170000000001
 30
0.0
 10
2.85326
 20
-6.663810000000001
 30
0.0
 10
2.85326
 20
-6.663810000000001
 30
0.0
 10
2.85326
 20
-6.663810000000001
 30
0.0
 10
2.85326
 20
-6.663810000000001
 30
0.0
 10
2.848700000000001
 20
-5.30438
 30
0.0
 10
2.848700000000001
 20
-5.30438
 30
0.0
 10
2.848700000000001
 20
-5.30438
 30
0.0
 10
2.848700000000001
 20
-5.30438
 30
0.0
 10
4.474110000000001
 20
-6.243080000000001
 30
0.0
 10
4.474110000000001
 20
-6.243080000000001
 30
0.0
 10
4.474110000000001
 20
-6.243080000000001
 30
0.0
 10
4.474110000000001
 20
-6.243080000000001
 30
0.0
 10
4.474110000000001
 20
-8.4122
 30
0.0
 10
4.474110000000001
 20
-8.4122
 30
0.0
 10
4.474110000000001
 20
-8.4122
 30
0.0
 10
4.474110000000001
 20
-8.4122
 30
0.0
 10
6.32542
 20
-8.4122
 30
0.0
 10
6.32542
 20
-8.4122
 30
0.0
 10
6.32542
 20
-8.4122
 30
0.0
 10
6.32542
 20
-8.4122
 30
0.0
 10
6.32542
 20
-7.312230000000001
 30
0.0
 10
6.32542
 20
-7.312230000000001
 30
0.0
 10
6.32542
 20
-7.312230000000001
 30
0.0
 10
6.32542
 20
-7.312230000000001
 30
0.0
 10
7.460540000000001
 20
-7.967790000000001
 30
0.0
 10
7.460540000000001
 20
-7.967790000000001
 30
0.0
 10
7.460540000000001
 20
-7.967790000000001
 30
0.0
 10
7.460540000000001
 20
-7.967790000000001
 30
0.0
 10
8.386180000000001
 20
-6.364030000000001
 30
0.0
 10
8.386180000000001
 20
-6.364030000000001
 30
0.0
 10
8.386180000000001
 20
-6.364030000000001
 30
0.0
 10
8.386180000000001
 20
-6.364030000000001
 30
0.0
 10
7.247290000000001
 20
-5.70631
 30
0.0
 10
7.247290000000001
 20
-5.70631
 30
0.0
 10
7.247290000000001
 20
-5.70631
 30
0.0
 10
7.247290000000001
 20
-5.70631
 30
0.0
 10
8.20715
 20
-5.151960000000001
 30
0.0
 10
8.20715
 20
-5.151960000000001
 30
0.0
  0
ELLIPSE
  5
43
330
1F
100
AcDbEntity
  8
layer 1
 62
   250
370
     5
100
AcDbEllipse
 10
3.28642
 20
-0.9155500000000001
 30
0.0
 11
0.0
 21
0.25
 31
0.0
210
0.0
220
0.0
230
1.0
 40
1.0
 41
0.0
 42
6.283185307179586
  0
ELLIPSE
  5
44
330
1F
100
AcDbEntity
  8
layer 1
 62
   250
370
     5
100
AcDbEllipse
 10
-5.991250000000001
 20
-6.26728
 30
0.0
 11
0.0
 21
0.25
 31
0.0
210
0.0
220
0.0
230
1.0
 40
1.0
 41
0.0
 42
6.283185307179586
  0
ELLIPSE
  5
45
330
1F
100
AcDbEntity
  8
layer 1
 62
   250
370
     5
100
AcDbEllipse
 10
-5.98617
 20
4.444830000000001
 30
0.0
 11
0.0
 21
0.25
 31
0.0
210
0.0
220
0.0
230
1.0
 40
1.0
 41
0.0
 42
6.283185307179586
  0
SPLINE
  5
46
330
1F
100
AcDbEntity
  8
layer 1
 62
   250
370
     5
100
AcDbSpline
210
0.0
220
0.0
230
1.0
 70
    11
 71
     3
 72
   320
 73
   316
 74
     0
 42
0.0000000001
 43
0.0000000001
 40
0.0
 40
0.0
 40
0.0
 40
0.0
 40
0.0126582278481013
 40
0.0126582278481013
 40
0.0126582278481013
 40
0.0126582278481013
 40
0.0253164556962025
 40
0.0253164556962025
 40
0.0253164556962025
 40
0.0253164556962025
 40
0.0379746835443038
 40
0.0379746835443038
 40
0.0379746835443038
 40
0.0379746835443038
 40
0.0506329113924051
 40
0.0506329113924051
 40
0.0506329113924051
 40
0.0506329113924051
 40
0.0632911392405063
 40
0.0632911392405063
 40
0.0632911392405063
 40
0.0632911392405063
 40
0.0759493670886076
 40
0.0759493670886076
 40
0.0759493670886076
 40
0.0759493670886076
 40
0.0886075949367089
 40
0.0886075949367089
 40
0.0886075949367089
 40
0.0886075949367089
 40
0.1012658227848101
 40
0.1012658227848101
 40
0.1012658227848101
 40
0.1012658227848101
 40
0.1139240506329114
 40
0.1139240506329114
 40
0.1139240506329114
 40
0.1139240506329114
 40
0.1265822784810127
 40
0.1265822784810127
 40
0.1265822784810127
 40
0.1265822784810127
 40
0.1392405063291139
 40
0.1392405063291139
 40
0.1392405063291139
 40
0.1392405063291139
 40
0.1518987341772152
 40
0.1518987341772152
 40
0.1518987341772152
 40
0.1518987341772152
 40
0.1645569620253165
 40
0.1645569620253165
 40
0.1645569620253165
 40
0.1645569620253165
 40
0.1772151898734178
 40
0.1772151898734178
 40
0.1772151898734178
 40
0.1772151898734178
 40
0.1898734177215191
 40
0.1898734177215191
 40
0.1898734177215191
 40
0.1898734177215191
 40
0.2025316455696203
 40
0.2025316455696203
 40
0.2025316455696203
 40
0.2025316455696203
 40
0.2151898734177216
 40
0.2151898734177216
 40
0.2151898734177216
 40
0.2151898734177216
 40
0.2278481012658229
 40
0.2278481012658229
 40
0.2278481012658229
 40
0.2278481012658229
 40
0.2405063291139242
 40
0.2405063291139242
 40
0.2405063291139242
 40
0.2405063291139242
 40
0.2531645569620254
 40
0.2531645569620254
 40
0.2531645569620254
 40
0.2531645569620254
 40
0.2658227848101267
 40
0.2658227848101267
 40
0.2658227848101267
 40
0.2658227848101267
 40
0.278481012658228
 40
0.278481012658228
 40
0.278481012658228
 40
0.278481012658228
 40
0.2911392405063293
 40
0.2911392405063293
 40
0.2911392405063293
 40
0.2911392405063293
 40
0.3037974683544306
 40
0.3037974683544306
 40
0.3037974683544306
 40
0.3037974683544306
 40
0.3164556962025318
 40
0.3164556962025318
 40
0.3164556962025318
 40
0.3164556962025318
 40
0.3291139240506331
 40
0.3291139240506331
 40
0.3291139240506331
 40
0.3291139240506331
 40
0.3417721518987344
 40
0.3417721518987344
 40
0.3417721518987344
 40
0.3417721518987344
 40
0.3544303797468357
 40
0.3544303797468357
 40
0.3544303797468357
 40
0.3544303797468357
 40
0.3670886075949369
 40
0.3670886075949369
 40
0.3670886075949369
 40
0.3670886075949369
 40
0.3797468354430382
 40
0.3797468354430382
 40
0.3797468354430382
 40
0.3797468354430382
 40
0.3924050632911395
 40
0.3924050632911395
 40
0.3924050632911395
 40
0.3924050632911395
 40
0.4050632911392408
 40
0.4050632911392408
 40
0.4050632911392408
 40
0.4050632911392408
 40
0.4177215189873421
 40
0.4177215189873421
 40
0.4177215189873421
 40
0.4177215189873421
 40
0.4303797468354433
 40
0.4303797468354433
 40
0.4303797468354433
 40
0.4303797468354433
 40
0.4430379746835446
 40
0.4430379746835446
 40
0.4430379746835446
 40
0.4430379746835446
 40
0.4556962025316459
 40
0.4556962025316459
 40
0.4556962025316459
 40
0.4556962025316459
 40
0.4683544303797472
 40
0.4683544303797472
 40
0.4683544303797472
 40
0.4683544303797472
 40
0.4810126582278484
 40
0.4810126582278484
 40
0.4810126582278484
 40
0.4810126582278484
 40
0.4936708860759497
 40
0.4936708860759497
 40
0.4936708860759497
 40
0.4936708860759497
 40
0.506329113924051
 40
0.506329113924051
 40
0.506329113924051
 40
0.506329113924051
 40
0.5189873417721522
 40
0.5189873417721522
 40
0.5189873417721522
 40
0.5189873417721522
 40
0.5316455696202534
 40
0.5316455696202534
 40
0.5316455696202534
 40
0.5316455696202534
 40
0.5443037974683547
 40
0.5443037974683547
 40
0.5443037974683547
 40
0.5443037974683547
 40
0.5569620253164559
 40
0.5569620253164559
 40
0.5569620253164559
 40
0.5569620253164559
 40
0.5696202531645571
 40
0.5696202531645571
 40
0.5696202531645571
 40
0.5696202531645571
 40
0.5822784810126583
 40
0.5822784810126583
 40
0.5822784810126583
 40
0.5822784810126583
 40
0.5949367088607596
 40
0.5949367088607596
 40
0.5949367088607596
 40
0.5949367088607596
 40
0.6075949367088608
 40
0.6075949367088608
 40
0.6075949367088608
 40
0.6075949367088608
 40
0.620253164556962
 40
0.620253164556962
 40
0.620253164556962
 40
0.620253164556962
 40
0.6329113924050632
 40
0.6329113924050632
 40
0.6329113924050632
 40
0.6329113924050632
 40
0.6455696202531644
 40
0.6455696202531644
 40
0.6455696202531644
 40
0.6455696202531644
 40
0.6582278481012657
 40
0.6582278481012657
 40
0.6582278481012657
 40
0.6582278481012657
 40
0.6708860759493669
 40
0.6708860759493669
 40
0.6708860759493669
 40
0.6708860759493669
 40
0.6835443037974681
 40
0.6835443037974681
 40
0.6835443037974681
 40
0.6835443037974681
 40
0.6962025316455693
 40
0.6962025316455693
 40
0.6962025316455693
 40
0.6962025316455693
 40
0.7088607594936706
 40
0.7088607594936706
 40
0.7088607594936706
 40
0.7088607594936706
 40
0.7215189873417718
 40
0.7215189873417718
 40
0.7215189873417718
 40
0.7215189873417718
 40
0.734177215189873
 40
0.734177215189873
 40
0.734177215189873
 40
0.734177215189873
 40
0.7468354430379742
 40
0.7468354430379742
 40
0.7468354430379742
 40
0.7468354430379742
 40
0.7594936708860754
 40
0.7594936708860754
 40
0.7594936708860754
 40
0.7594936708860754
 40
0.7721518987341767
 40
0.7721518987341767
 40
0.7721518987341767
 40
0.7721518987341767
 40
0.7848101265822779
 40
0.7848101265822779
 40
0.7848101265822779
 40
0.7848101265822779
 40
0.7974683544303791
 40
0.7974683544303791
 40
0.7974683544303791
 40
0.7974683544303791
 40
0.8101265822784803
 40
0.8101265822784803
 40
0.8101265822784803
 40
0.8101265822784803
 40
0.8227848101265816
 40
0.8227848101265816
 40
0.8227848101265816
 40
0.8227848101265816
 40
0.8354430379746828
 40
0.8354430379746828
 40
0.8354430379746828
 40
0.8354430379746828
 40
0.848101265822784
 40
0.848101265822784
 40
0.848101265822784
 40
0.848101265822784
 40
0.8607594936708852
 40
0.8607594936708852
 40
0.8607594936708852
 40
0.8607594936708852
 40
0.8734177215189865
 40
0.8734177215189865
 40
0.8734177215189865
 40
0.8734177215189865
 40
0.8860759493670877
 40
0.8860759493670877
 40
0.8860759493670877
 40
0.8860759493670877
 40
0.8987341772151889
 40
0.8987341772151889
 40
0.8987341772151889
 40
0.8987341772151889
 40
0.9113924050632901
 40
0.9113924050632901
 40
0.9113924050632901
 40
0.9113924050632901
 40
0.9240506329113913
 40
0.9240506329113913
 40
0.9240506329113913
 40
0.9240506329113913
 40
0.9367088607594926
 40
0.9367088607594926
 40
0.9367088607594926
 40
0.9367088607594926
 40
0.9493670886075938
 40
0.9493670886075938
 40
0.9493670886075938
 40
0.9493670886075938
 40
0.962025316455695
 40
0.962025316455695
 40
0.962025316455695
 40
0.962025316455695
 40
0.9746835443037962
 40
0.9746835443037962
 40
0.9746835443037962
 40
0.9746835443037962
 40
0.9873417721518975
 40
0.9873417721518975
 40
0.9873417721518975
 40
0.9873417721518975
 40
1.0
 40
1.0
 40
1.0
 40
1.0
 10
32.23484000000001
 20
-5.677540000000001
 30
0.0
 10
32.23484000000001
 20
-5.677540000000001
 30
0.0
 10
32.23484000000001
 20
-5.677540000000001
 30
0.0
 10
32.23484000000001
 20
-5.677540000000001
 30
0.0
 10
32.23484000000001
 20
-5.677540000000001
 30
0.0
 10
32.23484000000001
 20
-5.677540000000001
 30
0.0
 10
34.57061
 20
-7.026140000000001
 30
0.0
 10
34.57061
 20
-7.026140000000001
 30
0.0
 10
34.57061
 20
-7.026140000000001
 30
0.0
 10
34.57061
 20
-7.026140000000001
 30
0.0
 10
33.54812
 20
-8.797030000000001
 30
0.0
 10
33.54812
 20
-8.797030000000001
 30
0.0
 10
33.54812
 20
-8.797030000000001
 30
0.0
 10
33.54812
 20
-8.797030000000001
 30
0.0
 10
31.21236
 20
-7.44854
 30
0.0
 10
31.21236
 20
-7.44854
 30
0.0
 10
31.21236
 20
-7.44854
 30
0.0
 10
31.21236
 20
-7.44854
 30
0.0
 10
31.63795
 20
-9.036910000000001
 30
0.0
 10
31.63795
 20
-9.036910000000001
 30
0.0
 10
31.63795
 20
-9.036910000000001
 30
0.0
 10
31.63795
 20
-9.036910000000001
 30
0.0
 10
29.66271
 20
-9.566210000000002
 30
0.0
 10
29.66271
 20
-9.566210000000002
 30
0.0
 10
29.66271
 20
-9.566210000000002
 30
0.0
 10
29.66271
 20
-9.566210000000002
 30
0.0
 10
28.70779
 20
-6.002560000000001
 30
0.0
 10
28.70779
 20
-6.002560000000001
 30
0.0
 10
28.70779
 20
-6.002560000000001
 30
0.0
 10
28.70779
 20
-6.002560000000001
 30
0.0
 10
26.83084
 20
-4.918900000000001
 30
0.0
 10
26.83084
 20
-4.918900000000001
 30
0.0
 10
26.83084
 20
-4.918900000000001
 30
0.0
 10
26.83084
 20
-4.918900000000001
 30
0.0
 10
27.90185
 20
-9.739660000000001
 30
0.0
 10
27.90185
 20
-9.739660000000001
 30
0.0
 10
27.90185
 20
-9.739660000000001
 30
0.0
 10
27.90185
 20
-9.739660000000001
 30
0.0
 10
24.2561
 20
-6.396170000000001
 30
0.0
 10
24.2561
 20
-6.396170000000001
 30
0.0
 10
24.2561
 20
-6.396170000000001
 30
0.0
 10
24.2561
 20
-6.396170000000001
 30
0.0
 10
24.2561
 20
-8.57268
 30
0.0
 10
24.2561
 20
-8.57268
 30
0.0
 10
24.2561
 20
-8.57268
 30
0.0
 10
24.2561
 20
-8.57268
 30
0.0
 10
26.86496
 20
-11.18133
 30
0.0
 10
26.86496
 20
-11.18133
 30
0.0
 10
26.86496
 20
-11.18133
 30
0.0
 10
26.86496
 20
-11.18133
 30
0.0
 10
25.41893
 20
-12.62732
 30
0.0
 10
25.41893
 20
-12.62732
 30
0.0
 10
25.41893
 20
-12.62732
 30
0.0
 10
25.41893
 20
-12.62732
 30
0.0
 10
24.2561
 20
-11.46452
 30
0.0
 10
24.2561
 20
-11.46452
 30
0.0
 10
24.2561
 20
-11.46452
 30
0.0
 10
24.2561
 20
-11.46452
 30
0.0
 10
24.2561
 20
-14.16149
 30
0.0
 10
24.2561
 20
-14.16149
 30
0.0
 10
24.2561
 20
-14.16149
 30
0.0
 10
24.2561
 20
-14.16149
 30
0.0
 10
22.21124
 20
-14.16149
 30
0.0
 10
22.21124
 20
-14.16149
 30
0.0
 10
22.21124
 20
-14.16149
 30
0.0
 10
22.21124
 20
-14.16149
 30
0.0
 10
22.21124
 20
-11.46452
 30
0.0
 10
22.21124
 20
-11.46452
 30
0.0
 10
22.21124
 20
-11.46452
 30
0.0
 10
22.21124
 20
-11.46452
 30
0.0
 10
21.04841
 20
-12.62732
 30
0.0
 10
21.04841
 20
-12.62732
 30
0.0
 10
21.04841
 20
-12.62732
 30
0.0
 10
21.04841
 20
-12.62732
 30
0.0
 10
19.60237
 20
-11.18133
 30
0.0
 10
19.60237
 20
-11.18133
 30
0.0
 10
19.60237
 20
-11.18133
 30
0.0
 10
19.60237
 20
-11.18133
 30
0.0
 10
22.21124
 20
-8.57268
 30
0.0
 10
22.21124
 20
-8.57268
 30
0.0
 10
22.21124
 20
-8.57268
 30
0.0
 10
22.21124
 20
-8.57268
 30
0.0
 10
22.21124
 20
-6.40535
 30
0.0
 10
22.21124
 20
-6.40535
 30
0.0
 10
22.21124
 20
-6.40535
 30
0.0
 10
22.21124
 20
-6.40535
 30
0.0
 10
18.57173
 20
-9.743180000000001
 30
0.0
 10
18.57173
 20
-9.743180000000001
 30
0.0
 10
18.57173
 20
-9.743180000000001
 30
0.0
 10
18.57173
 20
-9.743180000000001
 30
0.0
 10
19.64455
 20
-4.91436
 30
0.0
 10
19.64455
 20
-4.91436
 30
0.0
 10
19.64455
 20
-4.91436
 30
0.0
 10
19.64455
 20
-4.91436
 30
0.0
 10
17.75955
 20
-6.00267
 30
0.0
 10
17.75955
 20
-6.00267
 30
0.0
 10
17.75955
 20
-6.00267
 30
0.0
 10
17.75955
 20
-6.00267
 30
0.0
 10
16.80463
 20
-9.566330000000001
 30
0.0
 10
16.80463
 20
-9.566330000000001
 30
0.0
 10
16.80463
 20
-9.566330000000001
 30
0.0
 10
16.80463
 20
-9.566330000000001
 30
0.0
 10
14.82939
 20
-9.037130000000001
 30
0.0
 10
14.82939
 20
-9.037130000000001
 30
0.0
 10
14.82939
 20
-9.037130000000001
 30
0.0
 10
14.82939
 20
-9.037130000000001
 30
0.0
 10
15.25498
 20
-7.44854
 30
0.0
 10
15.25498
 20
-7.44854
 30
0.0
 10
15.25498
 20
-7.44854
 30
0.0
 10
15.25498
 20
-7.44854
 30
0.0
 10
12.9191
 20
-8.797140000000001
 30
0.0
 10
12.9191
 20
-8.797140000000001
 30
0.0
 10
12.9191
 20
-8.797140000000001
 30
0.0
 10
12.9191
 20
-8.797140000000001
 30
0.0
 10
11.89673
 20
-7.026250000000001
 30
0.0
 10
11.89673
 20
-7.026250000000001
 30
0.0
 10
11.89673
 20
-7.026250000000001
 30
0.0
 10
11.89673
 20
-7.026250000000001
 30
0.0
 10
14.23249
 20
-5.677650000000001
 30
0.0
 10
14.23249
 20
-5.677650000000001
 30
0.0
 10
14.23249
 20
-5.677650000000001
 30
0.0
 10
14.23249
 20
-5.677650000000001
 30
0.0
 10
12.64395
 20
-5.25208
 30
0.0
 10
12.64395
 20
-5.25208
 30
0.0
 10
12.64395
 20
-5.25208
 30
0.0
 10
12.64395
 20
-5.25208
 30
0.0
 10
13.17328
 20
-3.27691
 30
0.0
 10
13.17328
 20
-3.27691
 30
0.0
 10
13.17328
 20
-3.27691
 30
0.0
 10
13.17328
 20
-3.27691
 30
0.0
 10
16.73706
 20
-4.23167
 30
0.0
 10
16.73706
 20
-4.23167
 30
0.0
 10
16.73706
 20
-4.23167
 30
0.0
 10
16.73706
 20
-4.23167
 30
0.0
 10
18.61413
 20
-3.14801
 30
0.0
 10
18.61413
 20
-3.14801
 30
0.0
 10
18.61413
 20
-3.14801
 30
0.0
 10
18.61413
 20
-3.14801
 30
0.0
 10
13.90361
 20
-1.66507
 30
0.0
 10
13.90361
 20
-1.66507
 30
0.0
 10
13.90361
 20
-1.66507
 30
0.0
 10
13.90361
 20
-1.66507
 30
0.0
 10
18.62195
 20
-0.17987
 30
0.0
 10
18.62195
 20
-0.17987
 30
0.0
 10
18.62195
 20
-0.17987
 30
0.0
 10
18.62195
 20
-0.17987
 30
0.0
 10
16.73706
 20
0.90844
 30
0.0
 10
16.73706
 20
0.90844
 30
0.0
 10
16.73706
 20
0.90844
 30
0.0
 10
16.73706
 20
0.90844
 30
0.0
 10
13.17328
 20
-0.04644
 30
0.0
 10
13.17328
 20
-0.04644
 30
0.0
 10
13.17328
 20
-0.04644
 30
0.0
 10
13.17328
 20
-0.04644
 30
0.0
 10
12.64395
 20
1.92873
 30
0.0
 10
12.64395
 20
1.92873
 30
0.0
 10
12.64395
 20
1.92873
 30
0.0
 10
12.64395
 20
1.92873
 30
0.0
 10
14.23249
 20
2.35442
 30
0.0
 10
14.23249
 20
2.35442
 30
0.0
 10
14.23249
 20
2.35442
 30
0.0
 10
14.23249
 20
2.35442
 30
0.0
 10
11.89662
 20
3.70291
 30
0.0
 10
11.89662
 20
3.70291
 30
0.0
 10
11.89662
 20
3.70291
 30
0.0
 10
11.89662
 20
3.70291
 30
0.0
 10
12.9191
 20
5.473800000000001
 30
0.0
 10
12.9191
 20
5.473800000000001
 30
0.0
 10
12.9191
 20
5.473800000000001
 30
0.0
 10
12.9191
 20
5.473800000000001
 30
0.0
 10
15.25498
 20
4.125310000000001
 30
0.0
 10
15.25498
 20
4.125310000000001
 30
0.0
 10
15.25498
 20
4.125310000000001
 30
0.0
 10
15.25498
 20
4.125310000000001
 30
0.0
 10
14.82927
 20
5.71368
 30
0.0
 10
14.82927
 20
5.71368
 30
0.0
 10
14.82927
 20
5.71368
 30
0.0
 10
14.82927
 20
5.71368
 30
0.0
 10
16.80452
 20
6.24298
 30
0.0
 10
16.80452
 20
6.24298
 30
0.0
 10
16.80452
 20
6.24298
 30
0.0
 10
16.80452
 20
6.24298
 30
0.0
 10
17.75943
 20
2.67933
 30
0.0
 10
17.75943
 20
2.67933
 30
0.0
 10
17.75943
 20
2.67933
 30
0.0
 10
17.75943
 20
2.67933
 30
0.0
 10
19.6365
 20
1.59578
 30
0.0
 10
19.6365
 20
1.59578
 30
0.0
 10
19.6365
 20
1.59578
 30
0.0
 10
19.6365
 20
1.59578
 30
0.0
 10
18.56549
 20
6.416430000000001
 30
0.0
 10
18.56549
 20
6.416430000000001
 30
0.0
 10
18.56549
 20
6.416430000000001
 30
0.0
 10
18.56549
 20
6.416430000000001
 30
0.0
 10
22.21124
 20
3.07294
 30
0.0
 10
22.21124
 20
3.07294
 30
0.0
 10
22.21124
 20
3.07294
 30
0.0
 10
22.21124
 20
3.07294
 30
0.0
 10
22.21124
 20
5.249440000000001
 30
0.0
 10
22.21124
 20
5.249440000000001
 30
0.0
 10
22.21124
 20
5.249440000000001
 30
0.0
 10
22.21124
 20
5.249440000000001
 30
0.0
 10
19.60237
 20
7.85822
 30
0.0
 10
19.60237
 20
7.85822
 30
0.0
 10
19.60237
 20
7.85822
 30
0.0
 10
19.60237
 20
7.85822
 30
0.0
 10
21.04829
 20
9.304200000000002
 30
0.0
 10
21.04829
 20
9.304200000000002
 30
0.0
 10
21.04829
 20
9.304200000000002
 30
0.0
 10
21.04829
 20
9.304200000000002
 30
0.0
 10
22.21113
 20
8.141400000000001
 30
0.0
 10
22.21113
 20
8.141400000000001
 30
0.0
 10
22.21113
 20
8.141400000000001
 30
0.0
 10
22.21113
 20
8.141400000000001
 30
0.0
 10
22.21113
 20
10.83849
 30
0.0
 10
22.21113
 20
10.83849
 30
0.0
 10
22.21113
 20
10.83849
 30
0.0
 10
22.21113
 20
10.83849
 30
0.0
 10
24.2561
 20
10.83849
 30
0.0
 10
24.2561
 20
10.83849
 30
0.0
 10
24.2561
 20
10.83849
 30
0.0
 10
24.2561
 20
10.83849
 30
0.0
 10
24.2561
 20
8.141400000000001
 30
0.0
 10
24.2561
 20
8.141400000000001
 30
0.0
 10
24.2561
 20
8.141400000000001
 30
0.0
 10
24.2561
 20
8.141400000000001
 30
0.0
 10
25.41893
 20
9.304200000000002
 30
0.0
 10
25.41893
 20
9.304200000000002
 30
0.0
 10
25.41893
 20
9.304200000000002
 30
0.0
 10
25.41893
 20
9.304200000000002
 30
0.0
 10
26.86496
 20
7.85822
 30
0.0
 10
26.86496
 20
7.85822
 30
0.0
 10
26.86496
 20
7.85822
 30
0.0
 10
26.86496
 20
7.85822
 30
0.0
 10
24.2561
 20
5.249440000000001
 30
0.0
 10
24.2561
 20
5.249440000000001
 30
0.0
 10
24.2561
 20
5.249440000000001
 30
0.0
 10
24.2561
 20
5.249440000000001
 30
0.0
 10
24.2561
 20
3.082230000000001
 30
0.0
 10
24.2561
 20
3.082230000000001
 30
0.0
 10
24.2561
 20
3.082230000000001
 30
0.0
 10
24.2561
 20
3.082230000000001
 30
0.0
 10
27.89561
 20
6.42006
 30
0.0
 10
27.89561
 20
6.42006
 30
0.0
 10
27.89561
 20
6.42006
 30
0.0
 10
27.89561
 20
6.42006
 30
0.0
 10
26.82279
 20
1.59113
 30
0.0
 10
26.82279
 20
1.59113
 30
0.0
 10
26.82279
 20
1.59113
 30
0.0
 10
26.82279
 20
1.59113
 30
0.0
 10
28.70779
 20
2.67944
 30
0.0
 10
28.70779
 20
2.67944
 30
0.0
 10
28.70779
 20
2.67944
 30
0.0
 10
28.70779
 20
2.67944
 30
0.0
 10
29.66271
 20
6.24298
 30
0.0
 10
29.66271
 20
6.24298
 30
0.0
 10
29.66271
 20
6.24298
 30
0.0
 10
29.66271
 20
6.24298
 30
0.0
 10
31.63795
 20
5.71379
 30
0.0
 10
31.63795
 20
5.71379
 30
0.0
 10
31.63795
 20
5.71379
 30
0.0
 10
31.63795
 20
5.71379
 30
0.0
 10
31.21236
 20
4.125310000000001
 30
0.0
 10
31.21236
 20
4.125310000000001
 30
0.0
 10
31.21236
 20
4.125310000000001
 30
0.0
 10
31.21236
 20
4.125310000000001
 30
0.0
 10
33.54812
 20
5.47391
 30
0.0
 10
33.54812
 20
5.47391
 30
0.0
 10
33.54812
 20
5.47391
 30
0.0
 10
33.54812
 20
5.47391
 30
0.0
 10
34.57061
 20
3.70302
 30
0.0
 10
34.57061
 20
3.70302
 30
0.0
 10
34.57061
 20
3.70302
 30
0.0
 10
34.57061
 20
3.70302
 30
0.0
 10
32.23484000000001
 20
2.35442
 30
0.0
 10
32.23484000000001
 20
2.35442
 30
0.0
 10
32.23484000000001
 20
2.35442
 30
0.0
 10
32.23484000000001
 20
2.35442
 30
0.0
 10
33.82327
 20
1.92885
 30
0.0
 10
33.82327
 20
1.92885
 30
0.0
 10
33.82327
 20
1.92885
 30
0.0
 10
33.82327
 20
1.92885
 30
0.0
 10
33.29406
 20
-0.04632
 30
0.0
 10
33.29406
 20
-0.04632
 30
0.0
 10
33.29406
 20
-0.04632
 30
0.0
 10
33.29406
 20
-0.04632
 30
0.0
 10
29.73028
 20
0.90844
 30
0.0
 10
29.73028
 20
0.90844
 30
0.0
 10
29.73028
 20
0.90844
 30
0.0
 10
29.73028
 20
0.90844
 30
0.0
 10
27.85332
 20
-0.17522
 30
0.0
 10
27.85332
 20
-0.17522
 30
0.0
 10
27.85332
 20
-0.17522
 30
0.0
 10
27.85332
 20
-0.17522
 30
0.0
 10
32.56373
 20
-1.65804
 30
0.0
 10
32.56373
 20
-1.65804
 30
0.0
 10
32.56373
 20
-1.65804
 30
0.0
 10
32.56373
 20
-1.65804
 30
0.0
 10
27.84527
 20
-3.14336
 30
0.0
 10
27.84527
 20
-3.14336
 30
0.0
 10
27.84527
 20
-3.14336
 30
0.0
 10
27.84527
 20
-3.14336
 30
0.0
 10
29.73028
 20
-4.23167
 30
0.0
 10
29.73028
 20
-4.23167
 30
0.0
 10
29.73028
 20
-4.23167
 30
0.0
 10
29.73028
 20
-4.23167
 30
0.0
 10
33.29406
 20
-3.27679
 30
0.0
 10
33.29406
 20
-3.27679
 30
0.0
 10
33.29406
 20
-3.27679
 30
0.0
 10
33.29406
 20
-3.27679
 30
0.0
 10
33.82327
 20
-5.25197
 30
0.0
 10
33.82327
 20
-5.25197
 30
0.0
 10
33.82327
 20
-5.25197
 30
0.0
 10
33.82327
 20
-5.25197
 30
0.0
 10
32.23484000000001
 20
-5.677540000000001
 30
0.0
 10
32.23484000000001
 20
-5.677540000000001
 30
0.0
  0
ELLIPSE
  5
47
330
1F
100
AcDbEntity
  8
layer 1
 62
   250
370
     5
100
AcDbEllipse
 10
25.53944
 20
2.33669
 30
0.0
 11
0.0
 21
0.25
 31
0.0
210
0.0
220
0.0
230
1.0
 40
1.0
 41
0.0
 42
6.283185307179586
  0
ELLIPSE
  5
48
330
1F
100
AcDbEntity
  8
layer 1
 62
   250
370
     5
100
AcDbEllipse
 10
25.54346
 20
-5.65753
 30
0.0
 11
0.0
 21
0.25
 31
0.0
210
0.0
220
0.0
230
1.0
 40
1.0
 41
0.0
 42
6.283185307179586
  0
ELLIPSE
  5
49
330
1F
100
AcDbEntity
  8
layer 1
 62
   250
370
     5
100
AcDbEllipse
 10
18.61803
 20
-1.66394
 30
0.0
 11
0.0
 21
0.25
 31
0.0
210
0.0
220
0.0
230
1.0
 40
1.0
 41
0.0
 42
6.283185307179586
  0
ENDSEC
  0
SECTION
  2
OBJECTS
  0
DICTIONARY
  5
C
330
0
100
AcDbDictionary
281
     1
  3
ACAD_GROUP
350
D
  3
ACAD_LAYOUT
350
1A
  3
ACAD_MLINESTYLE
350
17
  3
ACAD_PLOTSETTINGS
350
19
  3
ACAD_PLOTSTYLENAME
350
E
  0
DICTIONARY
  5
D
102
{ACAD_REACTORS
330
C
102
}
330
C
100
AcDbDictionary
281
     1
  0
DICTIONARY
  5
1A
102
{ACAD_REACTORS
330
C
102
}
330
C
100
AcDbDictionary
281
     1
  3
Layout1
350
1E
  3
Layout2
350
26
  3
Model
350
22
  0
DICTIONARY
  5
17
102
{ACAD_REACTORS
330
C
102
}
330
C
100
AcDbDictionary
281
     1
  3
Standard
350
18
  0
DICTIONARY
  5
19
102
{ACAD_REACTORS
330
C
102
}
330
C
100
AcDbDictionary
281
     1
  0
ACDBDICTIONARYWDFLT
  5
E
102
{ACAD_REACTORS
330
C
102
}
330
C
100
AcDbDictionary
281
     1
  3
Normal
350
F
100
AcDbDictionaryWithDefault
340
F
  0
LAYOUT
  5
1E
102
{ACAD_REACTORS
330
1A
102
}
330
1A
100
AcDbPlotSettings
  1

  2

  4

  6

 40
0.0
 41
0.0
 42
0.0
 43
0.0
 44
0.0
 45
0.0
 46
0.0
 47
0.0
 48
0.0
 49
0.0
140
0.0
141
0.0
142
1.0
143
1.0
 70
   688
 72
     0
 73
     0
 74
     5
  7

 75
    16
 76
     0
 77
     2
 78
   300
147
1.0
148
0.0
149
0.0
100
AcDbLayout
  1
Layout1
 70
     1
 71
     1
 10
0.0
 20
0.0
 11
12.0
 21
9.0
 12
0.0
 22
0.0
 32
0.0
 14
1.000000000000000E+20
 24
1.000000000000000E+20
 34
1.000000000000000E+20
 15
-1.000000000000000E+20
 25
-1.000000000000000E+20
 35
-1.000000000000000E+20
146
0.0
 13
0.0
 23
0.0
 33
0.0
 16
1.0
 26
0.0
 36
0.0
 17
0.0
 27
1.0
 37
0.0
 76
     0
330
1B
  0
LAYOUT
  5
26
102
{ACAD_REACTORS
330
1A
102
}
330
1A
100
AcDbPlotSettings
  1

  2

  4

  6

 40
0.0
 41
0.0
 42
0.0
 43
0.0
 44
0.0
 45
0.0
 46
0.0
 47
0.0
 48
0.0
 49
0.0
140
0.0
141
0.0
142
1.0
143
1.0
 70
   688
 72
     0
 73
     0
 74
     5
  7

 75
    16
 76
     0
 77
     2
 78
   300
147
1.0
148
0.0
149
0.0
100
AcDbLayout
  1
Layout2
 70
     1
 71
     2
 10
0.0
 20
0.0
 11
0.0
 21
0.0
 12
0.0
 22
0.0
 32
0.0
 14
0.0
 24
0.0
 34
0.0
 15
0.0
 25
0.0
 35
0.0
146
0.0
 13
0.0
 23
0.0
 33
0.0
 16
1.0
 26
0.0
 36
0.0
 17
0.0
 27
1.0
 37
0.0
 76
     0
330
23
  0
LAYOUT
  5
22
102
{ACAD_REACTORS
330
1A
102
}
330
1A
100
AcDbPlotSettings
  1

  2

  4

  6

 40
0.0
 41
0.0
 42
0.0
 43
0.0
 44
0.0
 45
0.0
 46
0.0
 47
0.0
 48
0.0
 49
0.0
140
0.0
141
0.0
142
1.0
143
1.0
 70
  1712
 72
     0
 73
     0
 74
     0
  7

 75
     0
 76
     0
 77
     2
 78
   300
147
1.0
148
0.0
149
0.0
100
AcDbLayout
  1
Model
 70
     1
 71
     0
 10
0.0
 20
0.0
 11
0.0
 21
0.0
 12
0.0
 22
0.0
 32
0.0
 14
-39.12375
 24
-14.1653
 34
0.0
 15
34.5758
 25
11.59108
 35
0.0
146
0.0
 13
0.0
 23
0.0
 33
0.0
 16
1.0
 26
0.0
 36
0.0
 17
0.0
 27
1.0
 37
0.0
 76
     0
330
1F
  0
MLINESTYLE
  5
18
102
{ACAD_REACTORS
330
17
102
}
330
17
100
AcDbMlineStyle
  2
Standard
 70
     0
  3

 62
   256
 51
90.0
 52
90.0
 71
     2
 49
0.5
 62
   256
  6
BYLAYER
 49
-0.5
 62
   256
  6
BYLAYER
  0
ACDBPLACEHOLDER
  5
F
102
{ACAD_REACTORS
330
E
102
}
330
E
  0
ENDSEC
  0
EOF
